Oops, an error
Loading. Please wait.

Hell Patrol Bass Tab

version 3
version 3

Whole song

  • Better accuracy, in the melodic and the rhythmic. ... Show more

Interactive

31 views 1 this week
no commentswrite comment
1 2 3 4 5
3 more votes to show rating
add to favorites
launch autoscroll
font size
0
reset
guitar tuner
Autoscroll
slow
fast
+/-
esc
set tempo
stop
Help us to improve Ultimate-Guitar.com Take our survey!
×
Author
Difficulty
intermediate
About this tab version
Better accuracy, in the melodic and the rhythmic. Better division of the music sessions. Was this info helpful? Yes No
 Song: Hell Patrol
 Band: Judas Priest
 Album: Painkiller
 Bassist: Ian Hill
 Composer: R. Halford, G. Tipton and K. K. Downing
 Tabbed by: FLBatista
 Tunning: Standard Tuning


INTRO:

G|----------|----------|----------|x2
D|----------|----------|----------|
A|-2--------|-2--------|-5--------|
E|----------|----------|----------|

G|----------|-------------------------|
D|----------|-------------------------|
A|-2--------|-------0-----1-----2-0---|
E|----------|-2-2-2---2-2---2-2-----2-|


VERSE (Like wild fire...):

G|-----------------------|---------------------|-----------------------|-----------------------|
D|-----------------------|------------5--4--2--|-----------------------|-----------------------|
A|-2--2-2-2-2-2--2-2-2-2-|-2--2-2-2-2----------|-5--5-5-5-5-5--5-5-5-5-|-----------------------|
E|-----------------------|---------------------|-----------------------|-5--5-5-5-5-5--5-5-5-5-|
 
G|-----------------------|---------------------|-----------------------|-----------------------|
D|-----------------------|------------5--4--2--|-----------------------|-----------------------|
A|-2--2-2-2-2-2--2-2-2-2-|-2--2-2-2-2----------|-5--5-5-5-5-5--5-5-5-5-|-----------------------|
E|-----------------------|---------------------|-----------------------|-5--5-5-5-5-2--2-2-2-2-|

G|-----------------------|---------------------|-----------------------|-----------------------|
D|-----------------------|------------5--4--2--|-----------------------|-----------------------|
A|-2--2-2-2-2-2--2-2-2-2-|-2--2-2-2-2----------|-5--5-5-5-5-5--5-5-5-5-|-----------------------|
E|-----------------------|---------------------|-----------------------|-5--5-5-5-5-5--5-5-5-5-|

G|------------------------|----------------------|------------------------|-----------------------|
D|------------------------|----------------------|------------------------|-----------------------|
A|------------------------|----------------------|------------------------|-----------------------|
E|-3--3-3-3-3-3-3-3-3-3-3-|-5--5-5-5-5-5-5-5-5-5-|-2--2-2-2-2-2-2-2-2-2-2-|-3--3-3-3-3-5--5-5-5-5-|


CHORUS (... patrol, the hell patrol):

G|----------------------|----------------------|------------------------|-----------------------|x2
D|----------------------|----------------------|------------------------|-----------------------|
A|-2--2-2-2-2-2-2-2-2-2-|-2--2-2-2-2-2-2-2-2-2-|-2--2-2-2-2-2-2-2-2-2-2-|-----------------------|
E|----------------------|----------------------|------------------------|-3--3-3-3-3-5--5-5-5-5-|


VERSE (Night riders..):

G|-----------------------|---------------------|-----------------------|-----------------------|
D|-----------------------|------------5--4--2--|-----------------------|-----------------------|
A|-2--2-2-2-2-2--2-2-2-2-|-2--2-2-2-2----------|-5--5-5-5-5-5--5-5-5-5-|-----------------------|
E|-----------------------|---------------------|-----------------------|-5--5-5-5-5-5--5-5-5-5-|
 
G|-----------------------|---------------------|-----------------------|-----------------------|
D|-----------------------|------------5--4--2--|-----------------------|-----------------------|
A|-2--2-2-2-2-2--2-2-2-2-|-2--2-2-2-2----------|-5--5-5-5-5-5--5-5-5-5-|-----------------------|
E|-----------------------|---------------------|-----------------------|-5--5-5-5-5-2--2-2-2-2-|

G|-----------------------|---------------------|-----------------------|-----------------------|
D|-----------------------|------------5--4--2--|-----------------------|-----------------------|
A|-2--2-2-2-2-2--2-2-2-2-|-2--2-2-2-2----------|-5--5-5-5-5-5--5-5-5-5-|-----------------------|
E|-----------------------|---------------------|-----------------------|-5--5-5-5-5-5--5-5-5-5-|

G|------------------------|----------------------|------------------------|-----------------------|
D|------------------------|----------------------|------------------------|-----------------------|
A|------------------------|----------------------|------------------------|-----------------------|
E|-3--3-3-3-3-3-3-3-3-3-3-|-5--5-5-5-5-5-5-5-5-5-|-2--2-2-2-2-2-2-2-2-2-2-|-3--3-3-3-3-5--5-5-5-5-|


CHORUS (... patrol, the hell patrol):

G|----------------------|----------------------|------------------------|-----------------------|x2
D|----------------------|----------------------|------------------------|-----------------------|
A|-2--2-2-2-2-2-2-2-2-2-|-2--2-2-2-2-2-2-2-2-2-|-2--2-2-2-2-2-2-2-2-2-2-|-----------------------|
E|----------------------|----------------------|------------------------|-3--3-3-3-3-5--5-5-5-5-|


VERSE 2 (Brutalize you...):

G|-------------------------|-----------------------|x2
D|-------------------------|-----------------------|
A|-------------------------|-------------------3---|
E|-2-2-2-2-2-2-2-2-2-2-2-2-|-2-2-2-2-2-2-2-2-2-----|

G|-------------------------|-----------------------|
D|-------------------------|-----------------------|
A|-------------------------|-------------------6---|
E|-5-5-5-5-5-5-5-5-5-5-5-5-|-5-5-5-5-5-5-5-5-5-----|

G|-------------------------|-------------------------|
D|-------------------------|-------------------------|
A|-------------------------|-------------------------|
E|-5-5-5-5-5-5-5-5-5-5-5-5-|-5-5-5-5-5-5-5-5-5-5-5-5-|


PRE-SOLO:

G|-----------------------|---------------------|-----------------------|------------------------|
D|-----------------------|------------5--4--2--|-----------------------|------------------------|
A|-2--2-2-2-2-2--2-2-2-2-|-2--2-2-2-2----------|-5--5-5-5-5-5--5-5-5-5-|------------------------|
E|-----------------------|---------------------|-----------------------|-5--5-5-5-5-5-5-5-5-5-5-|
 
G|-----------------------|---------------------|-----------------------|------------------------|
D|-----------------------|------------5--4--2--|-----------------------|------------------------|
A|-2--2-2-2-2-2--2-2-2-2-|-2--2-2-2-2----------|-5--5-5-5-5-5--5-5-5-5-|------------------------|
E|-----------------------|---------------------|-----------------------|-5--5-5-5-5-2-2-2-2-2-2-|

G|-----------------------|---------------------|-----------------------|------------------------|
D|-----------------------|------------5--4--2--|-----------------------|------------------------|
A|-2--2-2-2-2-2--2-2-2-2-|-2--2-2-2-2----------|-5--5-5-5-5-5--5-5-5-5-|------------------------|
E|-----------------------|---------------------|-----------------------|-5--5-5-5-5-5-5-5-5-5-5-|

G|------------------------|----------------------|------------------------|-----------------------|
D|------------------------|----------------------|------------------------|-----------------------|
A|------------------------|----------------------|------------------------|-----------------------|
E|-3--3-3-3-3-3-3-3-3-3-3-|-5--5-5-5-5-5-5-5-5-5-|-2--2-2-2-2-2-2-2-2-2-2-|-3--3-3-3-3-5--5-5-5-5-|


GUITAR SOLO (x2):

G|----------------------|----------------------|--------------------|----------------------|
D|----------------------|----------------------|--------------------|----------------------|
A|-2--2-2-2-2-2-2-2-2-2-|-1--1-1-1-1-1-1-1-1-1-|-2--2-2-2-2-2-2-2-2-|-4--4-4-4-4-4-4-4-4-4-|
E|----------------------|----------------------|--------------------|----------------------|

G|----------------------|----------------------|-------------|------------|
D|----------------------|-2--2-2-2-2-2-2-2-2-2-|-4-----------|------------|
A|-5--5-5-5-5-5-5-5-5-5-|----------------------|----5--2--5--|-4--1-----4-|
E|----------------------|----------------------|-------------|-------2----|


RE-INTRO:

G|----------|----------|----------|x2
D|----------|----------|----------|
A|-2--------|-2--------|-5--------|
E|----------|----------|----------|

G|-------------|------------|
D|-------------|------------|
A|-2--3--4--5--|-6--7--9----|
E|-------------|------------|


VERSE 3 (Crome masters...):

G|-----------------------|----------------------|-----------------------|---------------------|
D|-----------------------|----------------------|-----------------------|---------------------|
A|-----------------------|----------------------|-----------------------|---------------------|
E|-3--3-3-3-3-3--3-3-3-3-|-5--5-5-5-5-5-5-5-5-5-|-2--2-2-2-2-2--2-2-2-2-|3--3-3-3-3-3-3-3-3-3-|

G|-----------------------|------------------------|----------------------|-------------------|
D|-----------------------|------------------------|----------------------|-4--2-----4--2-----|
A|-----------------------|------------------------|----------------------|-------5--------5--|
E|-3--3-3-3-3-3--3-3-3-3-|-5--5-5-5-5-5-5-5-5-5-5-|2--2-2-2-2-2--2-2-2-2-|-------------------|

G|-----------------------|------------------------|------------------------|-------------------------|
D|-----------------------|------------------------|------------------------|-------------------------|
A|-----------------------|------------------------|------------------------|-------------------------|
E|-3--3-3-3-3-3--3-3-3-3-|-5--5-5-5-5-5-5-5-5-5-5-|-2--2-2-2-2-2-2-2-2-2-2-|-3-3-3-3-3-3-5-5-5-5-5-5-|


CHORUS (... patrol, the hell patrol):

G|----------------------|----------------------|------------------------|-----------------------|x2
D|----------------------|----------------------|------------------------|-----------------------|
A|-2--2-2-2-2-2-2-2-2-2-|-2--2-2-2-2-2-2-2-2-2-|-2--2-2-2-2-2-2-2-2-2-2-|-----------------------|
E|----------------------|----------------------|------------------------|-3--3-3-3-3-5--5-5-5-5-|


RIFF 1:

G|-------------------------|-----------------------|x2
D|-------------------------|-----------------------|
A|-------------------------|-------------------3---|
E|-2-2-2-2-2-2-2-2-2-2-2-2-|-2-2-2-2-2-2-2-2-2-----|


FINAL RIFF:

G|-------------------------|-------------|-----------|----------|-----------|
D|-------------4-3-2-4-3-2-|-------------|-----------|----------|-----------|
A|-4-3-2-4-3-2-------------|-2--3--4--5--|-----------|-2--------|-2-2\------|
E|-------------------------|-------------|-2-2-------|----------|-----------|


****************************
| \ : Slide Down
****************************
Suggest correction
Give kudos to tab author, rate the tab!
1 2 3 4 5
comments
print report bad tab
guest
You may want to rate the tab now too:
select rating
Wanna post a correction for this tab? Suggest correction