Oops, an error
Loading. Please wait.

Hellionelectric Eye Tab

version 1
version 1

Whole song

Interactive

24,298 views 9 this week
no commentswrite comment
1 2 3 4 5
x 4
add to favorites
launch autoscroll
font size
0
reset
how to read this tab
guitar tuner
Autoscroll
slow
fast
+/-
esc
set tempo
stop
Help us to improve Ultimate-Guitar.com Take our survey!
×
Author
Difficulty
Tuning
intermediate
D# G# C# F# A# D#
Tuning: Eb,Ab,Db,Gb,Bb,Eb

[Intro]
e|---------------------------------------------7--------------------------------------|
B|---------8--7--------------8--7-----------------10--8-------------------------------|
G|---------------9-----------------9---------------------9----------------------------|
D|---7--9--------------7--9--------------7--9-----------------------------------------|
A|------------------------------------------------------------------------------------|
E|------------------------------------------------------------------------------------|
                            (repeat x2 then guitar duz same repeat x4)
e|------------------------|---------------------------------------------------------|
B|------------------------|---------------------------------------------------------|
G|---------------7--9-----|---------------------------------------------------------|
D|-----------10--------9--|---------------------------------------------------------|
A|---/10-10---------------|---------------------------------------------------------|
E|------------------------|---------------------------------------------------------|
        whammy |--------------------------------------------------------------------|
                +  +  +   +   +
e|--------------7-------------12-----------------------------------------------------|
B|-----------------7------12---------------------------------------------------------|
G|--------------------7--------------------------------------------------------------|
D|---9-------------------------------9-----------------------------------------------|
A|---7-------------------------------7----7---9---10---------------------------------|
E|------------------------------------------0---0----8-------------------------------|

e|---------------------------------------------------------|---------|
B|---------------------------------------------------------|---------|
G|---------------------------------------------------------|---(x2)--|
D|-------------------------------------------------------9-|---------|
A|---7---9---10--0---7--0--9--0--10--0------7---10----9--7-|---------|
E|-----0---0----------------------------7-----9----9--7----|---------|

[Verse]
e|--------------------------------------------------------|---------|
B|--------------------------------------------------------|---------|
G|---9-------9------9------7---7/9-----9-----9----------9-|---(x4)--|
D|---9-------9------9------7---7/9-----9-----9----------9-|---------|
A|---7-------7------7------5---5/7-----7-----7--9/7--7--7-|---------|
E|------x-x----x-x----x-x----------x-x---x-x----7/5--5----|---------|

[Pre-Chorus]
e|-----------------------------------------------------------------------|
B|-----------------------------------------------------------------------|
G|---9-------------------------------------------------------------------|
D|---9---------------------------------------------------------------9/--|
A|---7---7---9---10---------7---9---10-0----7-0-9-0-10------7---10---9/--|
E|---------0---0----8---------0---0--------------------7------9---9--7/--|

[Chorus]
e|---------------------------------------|
B|---------------------------------------|
G|------7--6--4-----------7--6--4--------|
D|------7--7--5--7--9-----7--7--5--(x2)--|
A|------7--7--5--5--7-----7--7--5--------|
E|---0-----------------0--------0--------|

[Verse]
e|--------------------------------------------------------|---------|
B|--------------------------------------------------------|---------|
G|---9-------9------9------7---7/9-----9-----9----------9-|---(x4)--|
D|---9-------9------9------7---7/9-----9-----9----------9-|---------|
A|---7-------7------7------5---5/7-----7-----7--9/7--7--7-|---------|
E|------x-x----x-x----x-x----------x-x---x-x----7/5--5----|---------|

[Pre-Chorus]
e|-----------------------------------------------------------------------|
B|-----------------------------------------------------------------------|
G|---9-------------------------------------------------------------------|
D|---9---------------------------------------------------------------9/--|
A|---7---7---9---10---------7---9---10-0----7-0-9-0-10------7---10---9/--|
E|---------0---0----8---------0---0--------------------7------9---9--7/--|

[Chorus]
e|---------------------------------------|
B|---------------------------------------|
G|------7--6--4-----------7--6--4--------|
D|------7--7--5--7--9-----7--7--5--(x2)--|
A|------7--7--5--5--7-----7--7--5--------|
E|---0-----------------0--------0--------|

[Solo]
e|---10p7----10p7----7h10p7-8h11p8-9h12p9-10h13p10-11h14p14-12h15p12---------------|
B|--------10------10---------------------------------------------------------------|
G|---------------------------------------------------------------------------------|
D|---------------------------------------------------------------------------------|
A|---------------------------------------------------------------------------------|
E|---------------------------------------------------------------------------------|

e|---13h16p13---15b~---15b~---15b~---15b---15p12-------15p12-12-----------|
B|-----------------------------------------------15-12----------12h15p12--|
G|------------------------------------------------------------------------|
D|------------------------------------------------------------------------|
A|------------------------------------------------------------------------|
E|------------------------------------------------------------------------|

e|----------------------------17p15p14--15p14p12--14p12----12-------15p12--|
B|------------------------------------------------------15----15p12--------|
G|---14b-12----------------------------------------------------------------|
D|----------14-12----------------------------------------------------------|
A|----------------14-------------------------------------------------------|
E|-------------------12~---------------------------------------------------|

e|------12-------------------------------------------------------------------|
B|---15----15p12-15p12----12---------15p11-----------------------------------|
G|---------------------14----15-14---------12-15p12--------------------------|
D|--------------------------------------------------14-14p12-14p12----14p12--|
A|-----------------------------------------------------------------14--------|
E|---------------------------------------------------------------------------|

e|---------------------17-----17-----17-----17-17~--|
B|-----------------17b----17b----17b----17b---------|
G|--------------------------------------------------|
D|--------------------------------------------------|
A|---14---------------------------------------------|
E|------15-14-12------------------------------------|

e|-----------------------------------19p14h17p14--19p14h16p14--|
B|-------------------------10/12~------------------------------|
G|---------------7-/9-9b11-------------------------------------|
D|------7-9-/7-9-----------------------------------------------|
A|---10--------------------------------------------------------|
E|-------------------------------------------------------------|

e|---19p14h17p14--19p14h16p14--22p17h19p17--19h22p19------------|
B|----------------------------------------------------22p21p19--|
G|--------------------------------------------------------------|
D|--------------------------------------------------------------|
A|--------------------------------------------------------------|
E|--------------------------------------------------------------|

e|---19-----------------------------------------------------|
B|------22p19-18-19-22-22b~-22b~------7-8/10-8-7--8~-----8--|
G|---------------------------------/9-----------------------|
D|----------------------------------------------------------|
A|----------------------------------------------------------|
E|----------------------------------------------------------|

e|---------------------------------------------------------------------------------------|
B|---------------------------------------------------------------------------------------|
G|---------------7-8/10-8-7-8--10--------------------------------------------------------|
D|---9b-r9~---/9------------------9-8-----------------------7----------------------------|
A|-------------------------------------------7----7-10-7-10------------------------------|
E|------------------------------------7-7-10---10----------------------------------------|
(end solo)                            

[Interlude]
e|----------------------------10--12b~|-------------------------------------------------|
B|--------------------8-10-12---------|-------------------------------------------------|
G|------------7-9-7-9-----------------|---9---------------------------------------------|
D|--------7-9-------------------------|---9---------------------------------------------|
A|---7-10-----------------------------|---7--7---9---10---------------------------------|
E|------------------------------------|--------0---0----8-------------------------------|

e|-----------------------------------------|
B|-----------------------------------------|
G|-----------------------------------------|
D|-----------------------------------------|
A|---7---9---10-0--7-0-9-0-10----7---10----|
E|-----0---0------------------7----9----9--|

[Bridge]
e|--------------------------------------------------------------------|
B|--------------------------------------------------------------------|
G|--------------------------------------------------------------------|
D|---7-----5-----7-----5-----7p5----(repeat-as-many-times-as-u-need)--|
A|---7-----5-----7-----5-----7----------------------------------------|
E|-----x-x---x-x---x-x---x-x------------------------------------------|

[Chorus/outro]
e|-----------------------------------------------------------------------------------|
B|-----------------------------------------------------------------------------------|
G|---------------------------------7--6--4-------------------------------------------|
D|---10----------------------------7--7--5----9--------------------------------------|
A|---10----------------------------7--7--5----7--------------------------------------|
E|---8---------------------------0--------------0------------------------------------|

************************************

| /  Slide up
| x  Dead note
| h  Hammer-on
| p  Pull-off
| b  Bend
| ~  Vibrato
| r  Release

************************************
Suggest correction
comments
print report bad tab
guest
You may want to rate the tab now too:
select rating
Wanna post a correction for this tab? Suggest correction