Oops, an error
Loading. Please wait.

Hellrider Tab

version 1
version 1

Solo

Whole song

Interactive

3,651 views 1 this week
1 commentread comment
1 2 3 4 5
1 last vote to show rating
add to favorites
launch autoscroll
font size
0
reset
how to read this tab
guitar tuner
Autoscroll
slow
fast
+/-
esc
set tempo
stop
Help us to improve Ultimate-Guitar.com Take our survey!
×
DUAL SOLO ROM GLENN TIPTON AND KK DOWNING

PLEASE RATE

T=tap
^=bend
/=slide
p=pull off
h=hammer on
X=mute
*=dip whammy bar

GLENN
                                   T   T    T    T     T   T    T     T
------------3---------------------------------------------------------------|
--------------------------------8-12-7-12-5-12-8-12-7-12-8-12-7-12-5-12-----|
--2^---4-------4^---2-----4-------------------------------------------------|
----------------------------------------------------------------------------|
----------------------------------------------------------------------------|
----------------------------------------------------------------------------|
    T    T    T    T    T
----------------------------------------------------------------------------|
----------------------------------------------------------------------------|
--7-11-6-11-4-11-7-11-6-11-2/4----------------------------------------------|
----------------------------------------------------------------------------|
----------------------------------------------------------------------------|
----------------------------------------------------------------------------|

KK

--------------------------------12------------------12-----12-X-X-----------|
----------------12-15p12-----12----15p12-----12--------15^------------------|
--2^---2^---14^----------14^-------------14^----14^-------------------------|
----------------------------------------------------------------------------|
----------------------------------------------------------------------------|
----------------------------------------------------------------------------|

--16-20-17-15-14-12-17-15-12-17-15-12-16-14-12-14-12-10-14-12-10-13-11-8----|
----------------------------------------------------------------------------|
----------------------------------------------------------------------------|
----------------------------------------------------------------------------|
----------------------------------------------------------------------------|
----------------------------------------------------------------------------|

--12-10-8-7-11-8-12-8-10-8-7-12-19-19-16-19-24-24---------------------------|
----------------------------------------------------------------------------|
----------------------------------------------------------------------------|
----------------------------------------------------------------------------|
----------------------------------------------------------------------------|
----------------------------------------------------------------------------|

GLENN

---------------------------------------7h10p7--------9h12p9-----------------|
--15-------5*------------------------8--------8---10--------10---10/14------|
---------------12*-12*-11*-9*----9-9------------9--------------9------------|
----------------------------------------------------------------------------|
----------------------------------------------------------------------------|
----------------------------------------------------------------------------|

--12h15/10p7-----------15h19p15-24------------------------------------------|
-----------------10/17------------------------------------------------------|
--------------9-------------------------------------------------------------|
----------------------------------------------------------------------------|
----------------------------------------------------------------------------|
----------------------------------------------------------------------------|

KK

-----------------------------------------------------------------12----12---|
-------5*------12-15----12-15----12-15----12-15-----12-15-----12----15------|
--3*-------14^-------14^------14^------14^------14^-------14^---------------|
----------------------------------------------------------------------------|
----------------------------------------------------------------------------|
----------------------------------------------------------------------------|

--19-19-19-15-17-19-15-15-15-14-15-17-15-14-15-14-17-15-19-15----15---------|
--------------------------------------------------------------17------------|
----------------------------------------------------------------------------|
----------------------------------------------------------------------------|
----------------------------------------------------------------------------|
----------------------------------------------------------------------------|

THE REST WILL COME LATER.........SORRY GUYS
Suggest correction
Give kudos to tab author, rate the tab!
1 2 3 4 5
comments
print report bad tab
1 comment total.
0 reply
Jakob_Eisenbach 16 Sep 01, 2009 04:06 PM

its only less the halve

guest
You may want to rate the tab now too:
select rating
Wanna post a correction for this tab? Suggest correction