Oops, an error
Loading. Please wait.

Here Come The Tears Tab

version 1
version 1

Whole song

Interactive

5,112 views 9 this week
1 commentread comment
1 2 3 4 5
x 4
add to favorites
launch autoscroll
font size
0
reset
how to read this tab
guitar tuner
×
Best way to learn
"Here Come The Tears"
Autoscroll
slow
fast
+/-
esc
set tempo
stop
[Chords used in the accoustic bit]
e|----0-------0------0-------|
B|----0-------3------0-------|
G|----0-------2------0-------| 
D|----2-------0------2-------| 
A|----2--------------3-------|
E|----0----------------------|
                                       
[Riff A]      
e|---------------------------------------|
B|---------------------------------------|
G|-------------------------------7-6-----| 
D|--9--9--7-9--9--4--5-4-5--4-5--5-4-----| 
A|--7--7--5-7--7--2--3-2-3--2-3----------|
E|---------------------------------------|

[Riff B]
e|-------------------|
B|-------------------|
G|--4--4---2--4------|
D|--4--4---2--4------| 
A|--2--2---0--2------|
E|-------------------|
Suggest correction
comments
print report bad tab
1 comment total.
0 reply
Aikoj 243 Feb 08, 2009 04:32 PM

It's a start, but this is just not enough to have gotten accepted...

guest
You may want to rate the tab now too:
select rating
Wanna post a correction for this tab? Suggest correction