Oops, an error
Loading. Please wait.

Hot For Love Tab

version 1
version 1

Whole song

Interactive

856 views 1 this week
no commentswrite comment
1 2 3 4 5
1 last vote to show rating
add to favorites
launch autoscroll
font size
0
reset
how to read this tab
guitar tuner
Autoscroll
slow
fast
+/-
esc
set tempo
stop
Help us to improve Ultimate-Guitar.com Take our survey!
×
Difficulty
advanced
Band: Judas Priest
Album: turbo
Song : hot forlove
Glenn Tipton and kk downing

thins song was made in guitar pro 
standar tuning E

The intro have a Heavy Phasing & Effects
Intro riff 1
E||------------||-------------------------|-----------------------|
B||------------||--------6----------------|-----------------------|
G||*----------*||--------------7-------8--|------7----------------|
D||*----------*||-----7-------------------|-----------5--7--------|
A||------------||--5--------5-------5-----|----5------------8--7--| (x2)
E||------------||-------------------------|-----------------------|

After intro the two guitar play this part 

Riff 2
|----------------------------|----------------------------|
|----------------------------|----------------------------|
|--10---x-----7--x-----5--x--|-----7--x-----10--10--------|
|--10---x--0--7--x--0--5--x--|--0--7--x--0--10--10--0--0--|
|----------------------------|----------------------------|
|----------------------------|----------------------------|

|----------------------------|----------------------------|
|----------------------------|----------------------------|
|--10---x-----7--x-----5--x--|-----7--x-----12--12--------| (x2)
|--10---x--0--7--x--0--5--x--|--0--7--x--0--12--12--0--0--|
|----------------------------|----------------------------|
|----------------------------|----------------------------|

Riff 3
Verse 1 and  2
The rff 3 is the same for the two verses and repeat this part 2 times before
the play the next riff (riff 4)

|-------------------------|-----------------------|--------------------------|
|-------------------------|-----------------------|--------------------------|
|-------------------------|-----------------7\----|--------------------------|
|-------------------------|-----------------7\----|--------------------------|
|-------------------------|-----------------------|--------------------------|
|-7--7--7--7--7--7--7--7--|--7--7--7--7--7--------|--7--7--7--7--7--7--7--7--|
............................................          ..................... .
|--------------------------|-----------------------|--------------------------|
|--------------------------|-----------------------|--------------------------|
|--------------------------|-----------------------|--------------------------|
|--------------------------|-----------------------|--------------------------|
|--------------------------|--6----6----6--6----6--|---4/6/4------4----6------|
|--7--7--7--7--7--7--7--7--|--4----4----4--4----4--|------------7---------7b--|
..........................
|----------------------|-----------------------|
|----------------------|-----------------------|
|----------------------|-----------------------|
|----------------------|-----------------------|
|----6-----6--6-----6--|---x--6-----6--6--6/---|
|----4-----4--4-----4--|---x--4-----4--4--4/---|

Riff 4 
Pre chorus 
|---------------------|----------------------|----------------------|
|---------------------|----------------------|----------------------|
|---------------------|----------------------|----------------------|
|--9----9----9--9--9--|--5----5----5--5--5/--|--7----7----7--7--7\--|
|--9----9----9--9--9--|--5----5----5--5--5/--|--7----7----7--7--7\--|
|--7----7----7--7--7--|--3----3----3--3--3/--|--5----5----5--5--5\--|

|--------------------------|---------------------------|
|--------------------------|---------------------------|
|--------------------------|---------------------------|
|--4-----4-----4--4--4/----|--9-----9-----9--9-----9s--|
|--4-----4-----4--4--4/----|--9-----9-----9--9-----9---|
|--2-----2-----2--2--2/----|--7-----7-----7--7-----7---|

|----------------------|-----------------------|
|----------------------|-----------------------|
|----------------------|-----------------------|
|--5----5-----5--5--5--|--2----2----2----------|
|--5----5-----5--5--5--|--2----2----2----5--4--|
|--3----3-----3--3--3--|--0----0----0----3--2--|

The chorus is the same riff 2  in the chorus only play this riff 2 times,
in two guitars after to play the prechorus and the end of song too

Bride
|-----------------|-----------------|-------------|------------------------|
|-----------------|-----------------|-------------|------------------------|
|---------9--\----|-------7------7--|----5-----5--|----2-----5----2--------|
|---------7--\----|-------5------4--|----3--------|--------2-----------2---|
|--0--------------|--0--------------|-------------|------------------------|
|-----------------|-----------------|-------------|------------------------|

|----------------|-----------------|----------------|----------------------|
|----------------|-----------------|----------------|----------------------|
|---------9-\----|--------7-----7--|----5----5--5---|---5-----2--5-----2---|
|---------7-\----|--------5-----4--|----3----3--3---|------3--------3------|
|--0-------------|--0--------------|----------------|----------------------|
|----------------|-----------------|----------------|----------------------|


..  - palm mute          /  - slide up to
 \  - slide down to      ~  - vibrato
 h  - hammer on          b  - bend
 p  - pull off            Suffixes for bend
                          ph - pinch harmonic
                           f - full bend    h - half bend
*  - see comment           r - release      t - tap bend
X  - percussion mute       ~ - vibrato bend
@  - slight palm mute     () - ghost note, sustained note
Suggest correction
Give kudos to tab author, rate the tab!
1 2 3 4 5
comments
print report bad tab
guest
You may want to rate the tab now too:
select rating
Wanna post a correction for this tab? Suggest correction