Oops, an error
Loading. Please wait.

Hot Rockin Bass Tab

1,773 views 1 this week
no commentswrite comment
1 2 3 4 5
excellent!
x 3
add to favorites
launch autoscroll
font size
0
reset
guitar tuner
Autoscroll
slow
fast
+/-
esc
set tempo
stop
Help us to improve Ultimate-Guitar.com Take our survey!
×
Contributor
-------------------------------------------------------------------------------
			     Hot Rockin' - Judas Priest
-------------------------------------------------------------------------------


Intro
G|------------|------------|------------|------------|
D|------------|------------|------------|------------|
A|------------|------------|------------|------------|
E|5-5---5-5---|5-3---------|------------|---------8\5|

Verse
G|----------------|----------------|----------------|----------------|
D|----------------|----------------|----------------|----------------|
A|----------------|--------3-3-3-3-|----------------|----------------|
E|5-5-5-5-5-5-5-5-|5-5-5-5---------|3-3-3-3-3-3-3-3-|3-3-3-3-5-5-5-5-|

Chorus
G|----------------|
D|----------------|
A|5-5-5-5-5-5-5-5-|
E|----------------|

Solo
G|----------------|----------------|----------------|----------------|
D|----------------|----------------|----------------|----------------|
A|----------------|--------5-5-5-5-|----------------|----------------|
E|7-7-7-7-7-7-7-7-|7-7-7-7---------|5-5-5-5-5-5-5-5-|5-5-5-5-7-7-7-7-|

Bridge
G|----------------|----------------|----------------|----------------|
D|----------------|----------------|----------------|----------------|
A|7-7-7-7-7-7-7-7-|7-7-7-7-7-7-7-7-|5-5-5-5-5-5-5-5-|5-5-5-5-5-5-5-5-|
E|----------------|----------------|----------------|----------------|

G|----------------|----------------|----------------|----------------|
D|----------------|----------------|----------------|----------------|
A|----------------|----------------|----------------|----------------|
E|8-8-8-8-8-8-8-8-|8-8-8-8-8-8-8-8-|7---------------|----------------|

Ending
G|------------|------------|------------|------------|---------------|
D|------------|------------|------------|------------|---------------|
A|------------|------------|------------|------------|---------------|
E|3-3---3-3---|3-5---------|------------|------------|5--------------|

That's all there is to it, just put the sections together and your done.

| /  slide up
| \  slide down
| h  hammer-on
| p  pull-off
| ~  vibrato
| +  harmonic
| x  Mute note
===============================================================================
comments
We did not receive enough feedback on this tab! Please rate:
print report bad tab
1 2 3 4 5
I want to post or [tab]
guest
You may want to rate the tab now too:
select rating
Please do not post tabs as comments. Select "correction" instead!