Oops, an error
Loading. Please wait.

Invader Tab

version 1
version 1

Solo

Whole song

Interactive

384 views 1 this week
no commentswrite comment
1 2 3 4 5
2 more votes to show rating
add to favorites
launch autoscroll
font size
0
reset
how to read this tab
guitar tuner
Autoscroll
slow
fast
+/-
esc
set tempo
stop
Help us to improve Ultimate-Guitar.com Take our survey!
×
Author
      W                   W             
E||--------------------|-------------------|
B||--------------------|-------------------|
G||--17----------------|--L----------------|
D||--17----------------|--L----------------|
A||--------------------|-------------------|
E||--------------------|-------------------|


  W                   W
-------------------|-------------------|
-------------------|-------------------|
--L----------------|--L----------------|
--L----------------|--L----------------|
-------------------|-------------------|
-------------------|-------------------|


   Q     Q     Q       Q          w/ echo repeat
--21\----x----21\----(21)\----|
------------------------------|
------------------------------|
------------------------------|
------------------------------|
------------------------------|


        |---3---|            |-----3-----|
  Q     E   E   E   Q        E     E     E
-------21--21--21--21\----/(21)--(21)--(21)--|
---------------------------------------------|
---------------------------------------------|
---------------------------------------------|
---------------------------------------------|
---------------------------------------------|


    |---3---|   |-3-|
    Q       E   E   Q    H
--(21)\----21--21b--L----L--------|
----------------------------------|
----------------------------------|
----------------------------------|
----------------------------------|
----------------------------------|


  W                   E  Q.     Q.     E
--L----------------|-----5------L---------|
-------------------|--5----------------5--|
-------------------|----------------------|
-------------------|----------------------|
-------------------|----------------------|
-------------------|----------------------|


  S  S E  E   E  E  E  E  E
--8p-5----7b--L--L-----------|
-------5------------------5--|
-----------------------------|
-----------------------------|
-----------------------------|
-----------------------------|


                      |---3--|
  E  E  Q      E   E  E   E  E
--5-----7br----Lh--5------------|
-----5----------------5h--7-----|
--------------------------------|
--------------------------------|
--------------------------------|
--------------------------------|


  E  Q.     H
--5-------------------|
-----7------5~--------|
----------------------|
----------------------|
----------------------|
----------------------|


   Q.       E  Q.      E
--12b-------L--L------12br--|
----------------------------|
----------------------------|
----------------------------|
----------------------------|
----------------------------|


  E    E   E   E   H
--Lh--10s--9-----------------|
--------------10---L~--------|
-----------------------------|
-----------------------------|
-----------------------------|
-----------------------------|


  E   E   E   E    S T   T  E   Q
--9--10--12--12br--L-Lh-10-12b--L----|
-------------------------------------|
-------------------------------------|
-------------------------------------|
-------------------------------------|
-------------------------------------|


   Q.      E   E   E  Q
--12~------9--10------------|
------------------10--------|
----------------------9\----|
----------------------------|
----------------------------|
----------------------------|


  S  E.  Q    Q    E  E
-------------------------|
----10---L----L----------|
--9-------------------9--|
-------------------------|
-------------------------|
-------------------------|


  E  E   Q     Q    Q
--8----------------------|
--------12b----L---------|
-----9-------------------|
-------------------------|
-------------------------|
-------------------------|


   Q      Q      Q      Q
------------------------------|
--12b----12b----12b----12b----|
------------------------------|
------------------------------|
------------------------------|
------------------------------|


   E   E   E   E   Q      E   E
------------------12~------------|
--12--10--12-------------12------|
--------------11-------------11--|
---------------------------------|
---------------------------------|
---------------------------------|


   H            H
--15b~--------(15)b~--------|
----------------------------|
----------------------------|
----------------------------|
----------------------------|
----------------------------|


   H            H
--15b~--------(15)b--------|
---------------------------|
---------------------------|
---------------------------|
---------------------------|
---------------------------|


                      |--3--|
  E   E  E  E   E  E  S  S  S E
---------5---------5--4h-5p-4----|
--5h--7-----5h--7-------------5--|
---------------------------------|
---------------------------------|
---------------------------------|
---------------------------------|


    E  E  E  E  E   E  E   E
------------------------------|
------------------------------|
-----------------------9--11--|
-------7--9--x--9--11---------|
--7g9-------------------------|
------------------------------|


   E     S  S  S  S  S S S   S  S  S S   S  S
------------------------------------------------|
------------------------------------------------|
--11br---Lp-9-11p-9----9-9h-12p-9----9h-12p-9---|
--------------------11------------12---------12-|
------------------------------------------------|
------------------------------------------------|


      E   S  S  S   S  S   S  Q    Q
------------12---------------16---------|
---------12----15p-12-17p-12------------|
--11g13---------------------------------|
----------------------------------------|
----------------------------------------|
----------------------------------------|
Suggest correction
Give kudos to tab author, rate the tab!
1 2 3 4 5
comments
print report bad tab
guest
You may want to rate the tab now too:
select rating
Wanna post a correction for this tab? Suggest correction