Oops, an error
Loading. Please wait.

Jawbreaker Bass Tab

version 2
version 2

Whole song

Interactive

416 views 1 this week
no commentswrite comment
1 2 3 4 5
please rate
add to favorites
launch autoscroll
font size
0
reset
guitar tuner
Autoscroll
slow
fast
+/-
esc
set tempo
stop
Help us to improve Ultimate-Guitar.com Take our survey!
×
Contributor
Difficulty
gary1046 741
intermediate
ARTIST: JUDAS PRIEST
SONG: JAWBREAKER
TABBED BY: Gary Hricewich
E-mail: snapper2001@msn.com                "PLEASE NOTE: 11'S ARE ONES, NOT ELEVENS"

 INTRO            REST/ 12 BARS
G---------------|-------------------|-------|-------|-------|
D-----------1-0-|-------------------|-------|-------|-------|
A---5---3-------|-------------------|-3-5---|-------|-------|
E-----5---3-----|-------------------|-------|---5---|---5-5-|


 BRIDGE
G-----|---|---|-----|---|-----------------|-----------------|---|---|-----------|
D-----|---|---|-----|---|-----------------|-----------------|---|---|-----------|
A---3-|-4-|-5-|---3-|-4-|-5-5-5-5-5-5-5-5-|-5-5-5-5-5-5-5-5-|-3-|-4-|-5---------|
E-----|---|---|-----|---|-----------------|-----------------|---|---|---5-6-3-5-|


CHORUS                                  8X
G---|--------------------------------------|
D---|*------------------------------------*|
A---|*-5-5-5-5-5-5-5-5--------------------*|
E---|--------------------------------------|


VERSE START           2X                   2X                    2X                    4X
G---|-------------------|-|-------------------|-|-------------------|-|-------------------|
D---|*-----------------*|-|*-----------------*|-|*-----------------*|-|*-----------------*|
A---|*-5-5-5-5-5-5-5-5-*|-|*-1-1-1-1-1-1-1-1-*|-|*-0-0-0-0-0-0-0-0-*|-|*-5-5-5-5-5-5-5-5-*|
E---|-------------------|-|-------------------|-|-------------------|-|-------------------|


                     2X                    2X          VERSE END
G---|-------------------|-|-------------------|-----------------|
D---|*-----------------*|-|*-----------------*|-----------------|
A---|*-1-1-1-1-1-1-1-1-*|-|*-0-0-0-0-0-0-0-0-*|-5-5-5-5-5-5-5-5-|
E---|-------------------|-|-------------------|-----------------|

 REPEAT BRIDGE
 REPEAT CHORUS


     SOLO INTRO      2X                       8X
G---|------------------|-|----------------------|
D---|*----------------*|-|*--------------------*|
A---|*-5-3-5-3-2------*|-|*-0-0-0-0-0-0-0-0----*|
E---|------------3-----|-|----------------------|


     SOLO             16X
G---|--------------------|-----------------|-----------------|-----------------|
D---|*------------------*|-----------------|-----------------|-----------------|
A---|*------------------*|-----------------|-----------------|-----------------|
E---|--0-0-0-0-0-0-0-0---|-5-5-5-5-5-5-5-5-|-1-1-1-1-1-1-1-1-|-2-2-2-2-2-2-2-2-|



G-------------------|-----------------|-----------------|-----------------|-----|
D-------------------|-----------------|-----------------|-----------------|-----|
A-------------------|-----------------|-----------------|-----------------|-3-2-|
E---3-3-3-3-4-4-4-4-|-5-5-5-5-5-5-5-5-|-1-1-1-1-1-1-1-1-|-3-3-3-3-3-3-3-3-|-----|



G-------------------|-----------------|-----------------|-----------------|-----------------|
D-------------------|-----------------|-----------------|-----------------|-----------------|
A-------------------|-----------------|-----------------|-----------------|-----------------|
E---5-5-5-5-5-5-5-5-|-1-1-1-1-1-1-1-1-|-2-2-2-2-2-2-2-2-|-3-3-3-3-4-4-4-4-|-5-5-5-5-5-5-5-5-|


G-------------------|-----------------|-----|-----------------|-------------|
D-------------------|-----------------|-----|-----------------|-------------|
A-------------------|-----------------|-3-2-|-----------------|-------------|
E---1-1-1-1-1-1-1-1-|-3-3-3-3-3-3-3-3-|-----|-0-0-0-0-0-0-1-1-|-1-2-2-2-3-4-|


                                 SOLO END
G-------------------|--------------------|
D-------------------|--------------------|
A-------------------|--------------------|
E---5-5-5-5-5-5-5-7-|-8-9-10--7--7-------|

   REPEAT BRIDGE
   REPEAT CHORUS 15X


  END
G------|--------|---------|-----------------|
D------|--------|----0----|-0---------------|
A------|------3-|-5-------|---------------5-|
E---5--|-5------|---------|---1-----1-1-0---|
comments
We did not receive enough feedback on this tab! Please rate:
print report bad tab
1 2 3 4 5
I want to post or [tab]
guest
You may want to rate the tab now too:
select rating
Please do not post tabs as comments. Select "correction" instead!