Oops, an error
Loading. Please wait.

Jawbreaker Tab

version 2
version 2

Whole song

Interactive

3,057 views 1 this week
1 commentread comment
1 2 3 4 5
please rate
add to favorites
launch autoscroll
font size
0
reset
how to read this tab
guitar tuner
Autoscroll
slow
fast
+/-
esc
set tempo
stop
Help us to improve Ultimate-Guitar.com Take our survey!
×
Author

E|-------------------------|
B|-------------------------|
G|-------------------------|
D|--7-------7---10--10--9--|
A|--9---9---5---8---8---7--|
E|------7------------------|

Repeat 4xs
E|-----------------------------|
B|-----------------------------|
G|-----------------------------|
D|--9----9----7-----9----------|
A|--7-77-7-77-9--77-7--7-7-7---|
E|-----------------------------|
verse 1
E|----------------------------------------------------|-------------|
B|----------------------------------------------------|-------------|
G|----------------------------------------------------|---7-9-10-77-|
D|--9----9----9----9-5----5----5-4----4----4----4-----|-------------|
A|--7-77-7-77-7-77-7-3-33-3-33-3-2-22-2-22-2-22-2-22--|-------------|
E|----------------------------------------------------|-------------|

brige
E|--------------------------------------------------------|
B|--------------------------------------------------------|
G|--------------------------------------------------------|
D|---7----8----9---7----8-----9---9-----9----9----9----9--|
A|---5----6----7---5----6-----7---7--77-7-77-7-77-7-77-7--|
E|--------------------------------------------------------|

E|-------------------------------|
B|-------------------------------|
G|-------------------------------|
D|--7---8---9--------------------|
A|--5---6---7---9---10--7---9----|
E|--------------7---8---5---7----|

E|-------------------------------------|
B|-------------------------------------|
G|------7------8-------9----------11---|
D|--7-8----8-9----9-10-----11-12-------|
A|-------------------------------------|
E|-------------------------------------|
chorse
E|-----------------------------------------------|
B|-----------------------------------------------|
G|--10----10/9-----10------10/12-----------------|
D|--10----10/9-----10------10/12----7-5-4-4h5----|
A|-----00------00-------00--------------------7--|
E|-----------------------------------------------|

verse 2
E|----------------------------------------------------|-------------|
B|----------------------------------------------------|-------------|
G|----------------------------------------------------|---7-9-10-77-|
D|--9----9----9----9-5----5----5-4----4----4----4-----|-------------|
A|--7-77-7-77-7-77-7-3-33-3-33-3-2-22-2-22-2-22-2-22--|-------------|
E|----------------------------------------------------|-------------|

brige
E|--------------------------------------------------------|
B|--------------------------------------------------------|
G|--------------------------------------------------------|
D|---7----8----9---7----8-----9---9-----9----9----9----9--|
A|---5----6----7---5----6-----7---7--77-7-77-7-77-7-77-7--|
E|--------------------------------------------------------|

E|-------------------------------|
B|-------------------------------|
G|-------------------------------|
D|--7---8---9--------------------|
A|--5---6---7---9---10--7---9----|
E|--------------7---8---5---7----|

E|-------------------------------------|
B|-------------------------------------|
G|------7------8-------9----------11---|
D|--7-8----8-9----9-10-----11-12-------|
A|-------------------------------------|
E|-------------------------------------|
chorse 2
E|-----------------------------------------------|
B|-----------------------------------------------|
G|--10----10/9-----10------10/12-----------------|
D|--10----10/9-----10------10/12----7-5-4-4h5----|
A|-----00------00-------00--------------------7--|
E|-----------------------------------------------|


E|-----------------|-----------------|
B|-----------------|-----------------|
G|-10-9------------|-----------------|
D|------10-12-10-9-|-8-7-------------|
A|-----------------|-----10-9-7------|
E|-----------------|------------10-9-|

Interlude 2X well it has a slight dely
e|-----------------------------------------------------|
B|-----------------------------------------------------|
G|-----------------------------------------------------|
D|-2-------------\5-------------\7------\5-------------|
A|-0-0-0-0-0-0-0-\3-0-0-0-0-0-0-\5--0-0-\3--0-0--------|
E|-----------------------------------------------------|

solo.... it has a trem in it and my guitar doesent so bend hard if ur guitar 
i cant really figure it out give me a couple days....
E|--------------------------------------------------------------|
B|--19----------------------------------------------------------|
G|-----5--3--7--5----9--5---4p0--9p0-4p0--9p0--4p0-9p0-4p0-9p0--|
D|--------------------------------------------------------------|
A|--------------------------------------------------------------|
E|--------------------------------------------------------------|

brige
E|--------------------------------------------------------|
B|--------------------------------------------------------|
G|--------------------------------------------------------|
D|---7----8----9---7----8-----9---9-----9----9----9----9--|
A|---5----6----7---5----6-----7---7--77-7-77-7-77-7-77-7--|
E|--------------------------------------------------------|

E|-------------------------------|
B|-------------------------------|
G|-------------------------------|
D|--7---8---9--------------------|
A|--5---6---7---9---10--7---9----|
E|--------------7---8---5---7----|

E|-------------------------------------|
B|-------------------------------------|
G|------7------8-------9----------11---|
D|--7-8----8-9----9-10-----11-12-------|
A|-------------------------------------|
E|-------------------------------------|

E|-----------------------------------------------|
B|-----------------------------------------------|
G|--10----10/9-----10------10/12-----------------|
D|--10----10/9-----10------10/12----7-5-4-4h5----|
A|-----00------00-------00--------------------7--|
E|-----------------------------------------------|
it cont.. further
E|-------------------------------------|
B|-------------------------------------|
G|------7------8-------9----------11---|
D|--7-8----8-9----9-10-----11-12-------|
A|-------------------------------------|
E|-------------------------------------|
Suggest correction
What's this?
You can suggest a correction to this tab. Community and Mods will review your correction and vote to approve or reject it.
comments
We did not receive enough feedback on this tab! Please rate:
print report bad tab
1 2 3 4 5
1 comment total.
0 reply
BlkMgkNitez 443 wrote on June 18 2007, 03:36 pm

This tab sucks

guest
You may want to rate the tab now too:
select rating
Please do not post tabs as comments. Select "correction" instead!