Oops, an error
Loading. Please wait.

Judas Rising Bass Tab

version 1
version 1

Whole song

Interactive

2,359 views 3 this week
no commentswrite comment
1 2 3 4 5
please rate
add to favorites
launch autoscroll
font size
0
reset
guitar tuner
Autoscroll
slow
fast
+/-
esc
set tempo
stop
Help us to improve Ultimate-Guitar.com Take our survey!
×
Author
Difficulty
novice
-------------------------------------------------------------------------------
			   Judas Rising - Judas Priest
-------------------------------------------------------------------------------

Tabbed By : Nick Johnson

 
  Verse
G|-------------------------------------------------------------------|
D|-------------------------------------------------------------------|
A|-7-7-7-7---7-7-7-7--7-7-7-7---------7-7-7-7--7-7-7-7---------------|
E|-----------------------------3-2-0--------------------3-2-0-3-2-0--|

  Pre-Chorus
G|----------------------------------|
D|----------------------------------|
A|------------------5-5-5-5-5-5-5-5-|
E|-3-3-3-3-3-3-3-3------------------|

  Chorus
G|-------------------------------------------------------------------|
D|-------------------------------------------------------------------|
A|-7-7-7-7---7-7-7-7--7-7-7-7---------7-7-7-7--7-7-7-7---------------|
E|-----------------------------3-2-0--------------------3-2-0-3-2-0--|

  Solo
G|-------------------------------------------------------------------|
D|-------------------------------------------------------------------|
A|-7-7-7-7---7-7-7-7--7-7-7-7---------7-7-7-7--7-7-7-7---------------|
E|-----------------------------3-2-0--------------------3-2-0-3-2-0--|

===============================================================================
Suggest correction
Give kudos to tab author, rate the tab!
1 2 3 4 5
comments
print report bad tab
guest
You may want to rate the tab now too:
select rating
Wanna post a correction for this tab? Suggest correction