Oops, an error
Loading. Please wait.

Judas Rising Tab

version 1
version 1

Whole song

Interactive

14,668 views 6 this week
6 commentsread comments
1 2 3 4 5
accurate
x 8
add to favorites
launch autoscroll
font size
0
reset
how to read this tab
guitar tuner
Autoscroll
slow
fast
+/-
esc
set tempo
stop
Help us to improve Ultimate-Guitar.com Take our survey!
×
I Think I'm One of The First To Try And Tab This Song Out.
It's Certainly Not Perfect But Its A Start.I think the rythm is pretty correct.
Album:Angel Of Retribution
Song:Judas Rising
tabbed by ian

Inrto
|-------------------------------------------------------------------|
|-------------------------------------------------------------------|
|-------------------------------------------------------------------|
|-------------------------------------------------------------------|
|-------------------------------------------------------------------|
|-------------------------------------------------------------------|
|this part is played quietly behind the lead part which i have'nt worked out yet
|----------------------------------------------------------------------|
|----------------------------------------------------------------------|
|----------------------------------------------------------------------|
|7~-7-9-10-9~--9-10-12--14-12-10~--------------------------------------|
|---------------------------------10-9-7-10-7--7-9-10-9--9-10-12-10~---|
|----------------------------------------------------------------------|

|--------------------------------------------|
|--------------------------------------------|
|--------------------------------------------|
|--------------------------------------------|
|-10-12-14-15-14-12-10-9-7-10-7~-------------|
|--------------------------------------------|
Drum Roll

|---------------------------------------------------------|
|---------------------------------------------------------|
|---------------------------------------------------------|
|-7/9999--7/9999-7/9999-------7/9999--7/9999--------------|
|-5/7777--5/7777-5/7777-5-4-2-5/7777--5/7777-5-4-2-5-4-2--|
|-----------------------3-2-0----------------3-2-0-3-2-0--|
     
|---------------------------------------------------------------|
|---------------------------------------------------------------|
|---------------------------------------------------------------|
|-7/9999--7/9999--7/9999----------7/9999--7/9999--7/9999--------|
|-5/7777--5/7777--5/7777--5-4-2---5/7777--5/7777--5/7777-5-4-2--|
|-------------------------3-2-0--------------------------3-2-0--|
        'white bolts of lightning'       'came out of nowhere'

|-----------------------------------------------------|
|-----------------------------------------------------|
|-----------------------------------------------------|
|-7-7-7-7-7-7-7-7-7-7--------7/9-9-9-9-9-9-9-9--------|
|-5-5-5-5-5-5-5-5-5-5--5-4-2-5/7-7-7-7-7-7-7-7-5-4-2--|
|----------------------3-2-0-------------------3-2-0--|
'blinded the darkness'      'created the storm'        

|--------------------------------------------------------------|
|--------------------------------------------------------------|
|--------------------------------------------------------------|
|-7/9999--7/9999--7/9999----------7/9999--7/9999--7/9999-------|
|-5/7777--5/7777--5/7777---5-4-2--5/7777--5/7777--5/7777-5-4-2-|
|--------------------------3-2-0-------------------------3-2-0-|
     'war in their heavens'           'vengence ignited'

|----------------------------------------------------------------|
|----------------------------------------------------------------|
|----------------------------------------------------------------|
|-55555555-44444444--------------------------------------7-7-7-7-|
|-33333333-22222222-5555-2222-------0022332200---5-5-5-5-5-5-5-5-|
|-------------------3333-0000-002233-------------3-3-3-3---------|
 tourment and tempest'   'attacks like a swan'  

|-----------------------|
|-----------------------|
|-----------------------|
|---------7-7-7-7-------|
|-5-5-5-5-5-5-5-5-------|
|-3-3-3-3---------------|
 'bringer of pain...'

|-------------------------------------------------------------|
|-------------------------------------------------------------|
|-------------------------------------------------------------|
|-7/9999--7/9999--7/9999----------7/9999-7/9999---------------|
|-5/7777--5/7777--5/7777--5-4-2---5/7777-5/7777-5-4-2-5-4-0---|
|-------------------------3-2-0-----------------3-2-0-3-2-0---|
 'Judas is ring'
|-------------------------------------------------------------|
|----------15b~--(b15~)---------------------------------------|
|------------------------14delay-feedback---------------------|
|-------------------------------------------------------------|
|-------------------------------------------------------------|
|-------------------------------------------------------------|

|-------------------------------------------------------------|
|-------------------------------------------------------------|
|-------------------------------------------------------------|
|-7/9999--7/9999--7/9999--------7/9999--7/9999--7/9999--------|
|-5/7777--5/7777--5/7777-5-4-2--5/7777--5/7777--5/7777-5-4-2--|
|------------------------3-2-0-------------------------3-2-0--|

|-------------------------------------------------------------|
|-------------------------------------------------------------|
|-------------------------------------------------------------|
|-7/9999--7/9999--7/9999--------7/9999--7/9999--7/9999--------|
|-5/7777--5/7777--5/7777-5-4-2--5/7777--5/7777--5/7777-5-4-2--|
|------------------------3-2-0-------------------------3-2-0--|
 'eternal betrayer'               'ice cold and evil'

|---------------------------------------------------------|
|---------------------------------------------------------|
|---------------------------------------------------------|
|-7-7-7-7-7-7-7-7-7-7--------7/9-9-9-9-9-9-9-9-9-9--------|
|-5-5-5-5-5-5-5-5-5-5--5-4-2-5/7-7-7-7-7-7-7-7-7-7--5-4-2-|
|----------------------3-2-0---0-0-0-0-0-0-0-0-0-0--3-2-0-|
 'taking no prisoners'    'dark prince of the world'

|---------------------------------------|
|---------------------------------------|
|---------------------------------------|
|-7/9999--7/9999--7/9999----------------|
|-5/7777--5/7777--5/7777-5--4--2--------|
|------------------------3--2--0--------|
|
|---------------------------------------|
|---------------------------------------|
|---------------------------------------|
|---------------------------------------|
|-9h1010-9h1010--9h1010-12-10-9-9h10----|
|---------------------------------------|
        'humanity trembels'

|---------------------------------------|
|---------------------------------------|
|---------------------------------------|
|-7/9999--7/9999--7/9999----------------|
|-5/7777--5/7777--5/7777-5--4--2--------|
|------------------------3--2--0--------|
|
|---------------------------------------|
|---------------------------------------|
|---------------------------------------|
|---------------------------------------|
|-9h1010-9h1010--9h1010-12-10-9-9h10----|
|---------------------------------------|

|------------------------------------------------|
|------------------------------------------------|
|------------------------------------------------|
|-55555555-44444444------------------------------|
|-33333333-22222222-5555-2222-------0022332200---|
|-------------------3333-0000-002233-------------|
  'the carpets of mercy?''but none will be saved'

|---------------------------------------------|
|---------------------------------------------|
|---------------------------------------------|
|----------------------77---77---77---77------|
|-55---55---55----55---55---55---55---55------|
|-33---33---33----33--------------------------|
'the burden of shame' 'ther goes the prophasy'


|-----------------------------------------|
|-----------------------------------------|
|-----------------------------------------|
|---------------------77---77---77---77---|
|-55---55---55---55---55---55---55---55---|
|-33---33---33---33-----------------------|
'ascending from hell''forever despising'

                 |---------------------------------------------------------|
                 |---------------------------------------------------------|
'Judas is rising |---------------------------------------------------------|
                 | 7/9999--7/9999--7/9999-------7/9999-7/9999-7/9999-------|
                 |-5/7777--5/7777--5/7777-5-4-3-5/7777-5/7777-5/7777-5-4-2-|
                 |------------------------3-2-0----------------------3-2-0-|
                 |
                 |---------------------------------------------------------|
                 |--------b15~~~~~~~~~~~~~~~~~~~~~~~~----------------------|
                 |-----------------------------------------------14~r14p12--
                 |--------------------------------------------------------14
                 |---------------------------------------------------------|
                 |---------------------------------------------------------|
Solo (have'nt done yet)
rhythm for the solo
|-------------------------------------------------------------------------|
|-------------------------------------------------------------------------|
|-------------------------------------------------------------------------|
|-4-----5-------4-----5-------4-----5-------4-----5-4-3-5-4-2-------------|
|-2-----3-------2-----3-------2-----3-------2-----3-2-0-3-2-0-5-4-2-5-4-2-|
|-------------------------------------------------------------3-2-0-3-2-0-|

|---------------------------------------|
|---------------------------------------|
|---------------------------------------|
|-7/9999--7/9999--7/9999----------------|
|-5/7777--5/7777--5/7777-5--4--2--------|
|------------------------3--2--0--------|

|---------------------------------------|
|---------------------------------------|
|---------------------------------------|
|-7/9999--7/9999--7/9999----------------|
|-5/7777--5/7777--5/7777-5--4--2--------|
|------------------------3--2--0--------|

|-----------------------------------------------------|
|-----------------------------------------------------|
|-----------------------------------------------------|
|-7-7-7-7-7-7-7-7-7-7--------7/9-9-9-9-9-9-9-9--------|
|-5-5-5-5-5-5-5-5-5-5--5-4-2-5/7-7-7-7-7-7-7-7-5-4-2--|
|----------------------3-2-0-------------------3-2-0--|

|---------------------------------------|
|---------------------------------------|
|---------------------------------------|
|-7/9999--7/9999--7/9999----------------|
|-5/7777--5/7777--5/7777-5--4--2--------|
|------------------------3--2--0--------|

|---------------------------------------|
|---------------------------------------|
|---------------------------------------|
|-7/9999--7/9999--7/9999----------------|
|-5/7777--5/7777--5/7777-5--4--2--------|
|------------------------3--2--0--------|

|----------------------------------------------|
|----------------------------------------------|
|----------------------------------------------|
|-55555555-44444444----------------------------|
|-33333333-22222222-5555-2222-------0022332200-|
|-------------------3333-0000-002233-----------|

|-----------------------------------------|
|-----------------------------------------|
|-----------------------------------------|
|---------------------77---77---77---77---|
|-55---55---55---55---55---55---55---55---|
|-33---33---33---33-----------------------|
 'apretist reveal'  'the secret of...?'

|-----------------------------------------|
|-----------------------------------------|
|-----------------------------------------|
|---------------------77---77---77---77---|
|-55---55---55---55---55---55---55---55---|
|-33---33---33---33-----------------------|
 'i crucified steel' 'evan-galising'

                |---------------------------------------------------------|
                 |---------------------------------------------------------|
'Judas is rising |---------------------------------------------------------|
                 | 7/9999--7/9999--7/9999-------7/9999-7/9999--------------|
                 |-5/7777--5/7777--5/7777-5-4-3-5/7777-5/7777-5-4-2-5-4-2--|
                 |------------------------3-2-0---------------3-2-0-3-2-0--|

                 |--------------------------------------------|
                 |--------------------------------------------|
'Judas is rising |--------------------------------------------|
                 | 7/9999--7/9999--7/9999-------7/9999-7/9999-|
                 |-5/7777--5/7777--5/7777-5-4-3-5/7777-5/7777-|
                 |------------------------3-2-0---------------|

|------------------------------|
|------------------------------|
|------------------------------|
|-5-4-2-5-4-2--------------7/9-|
|-3-2-0-3-2-0-5-4-2-5-4-2--5/7-|
|-------------3-2-0-3-2-0------|
 
thats it for now.
Suggest correction
What's this?
You can suggest a correction to this tab. Community and Mods will review your correction and vote to approve or reject it.
comments
print report bad tab
6 comments total. Showing first comments.
0 reply
555666 145 wrote on June 9 2006, 02:19 pm

not "swan" but "storm"

0 reply
RATicuZZ 93 wrote on June 18 2006, 10:49 am

gnarly

0 reply
Zephyr Zylöz 280 wrote on January 4 2008, 05:44 pm

nah, it is swan, the funny bit was "carpets of mercy"...um, try "you cant beg for mercy", very funny

guest
You may want to rate the tab now too:
select rating
Please do not post tabs as comments. Select "correction" instead!