Oops, an error
Loading. Please wait.

Leather Rebel Bass Tab

version 1
version 1

Whole song

Interactive

1,810 views 1 this week
no commentswrite comment
1 2 3 4 5
2 more votes to show rating
add to favorites
launch autoscroll
font size
0
reset
guitar tuner
Autoscroll
slow
fast
+/-
esc
set tempo
stop
Help us to improve Ultimate-Guitar.com Take our survey!
×
Difficulty
advanced
band : judas priest
song leather rebel
album :painkiller 

Halford, Downing, Tipton

Intro second round of main riff of guitar 

|------------|-----|-----------|
|------------|-----|-----------|
|------------|-----|-----------|
|--0---------|-----|--0--------|

|--------------|----------|---------|-----------------------|------------------|
|--------------|----------|---------|-----------------------|------------------|
|-------10--9--|--7-------|--=------|-----------------------|-------10--9------|
|--------------|----------|---------|--3----3----x--5----7--|------------------|

Verse 1
And main riff

|------------------------------|------------------------|
|------------------------------|------------------------|
|------------------------------|------------------------|
|--0-0-0-0-7--0-0-0--5--0-0-0--|--3--0-0-0--2----0------|

|------------------------------|------------------------|------------------------------|
|------------------------------|------------4-----------|------------------------------|
|------------------------------|------------------5-----|------------------------------|
|--0-0-0-0-7--0-0-0--5--0-0-0--|--3--0-0-0--------------|--0-0-0-0-7--0-0-0--5--0-0-0--|
   
|------------------------|-----------------------|-----------------|
|------------------------|-----------------------|-----------------|
|------------------------|-----------------------|------10--9------| (x3)
|--3--0-0-0--2-----0-----|--3----3----x--5----7--|-----------------|


Pre-chorus 
 
|------------------------------|----------------------------|------------------------------|
|--4---------4----------4------|-----4----------4-----4-----|--4---------4----------4------|
|-----2-2-2-----2-2-2-2----2-2-|--2-----2-2-2-2----2-----2--|-----2-2-2-----2-2-2-2----2-2-|
|------------------------------|----------------------------|------------------------------|

|----------------------------|-----------------------------|-----------------------------|
|-----4----------4-----------|-----------------------------|-----------------------------|
|--2-----2-2-2-2----2--------|-----------------------------|-----------------------------|
|----------------------0--0--|--3--3-3-3--3--3-3-3-3-3--3--|--3-3-3-3-3--3--3-3-3-3-3----|

|---------------------|
|---------------------|
|----------------2----|
|--2------0-----------|

Chorus 

|--------------------------------|-------------------------|
|--------------------------------|-------------------------|
|----------7----------2----------|--5----------------------|
|--0-0-0-0----0-0-0-0----0-0-0-0-|-----0-0-0-0-5----8------|

|--------------------------------|--------------------|--------------------------------|
|--------------------------------|--------------------|--------------------------------|
|----------7----------2----------|---------5----------|----------7----------2----------|
|--0-0-0-0----0-0-0-0----0-0-0-0-|--3-----------------|--0-0-0-0----0-0-0-0----0-0-0-0-|

|--------------------------|-----------------------|----------------------|
|--------------------------|-----------------------|----------------------|
|--5-----------------------|-----------------------|-----------10--9------|
|-----0-0-0-0-5S----8------|--5----5---------8--7--|----------------------|

|----------------------|
|----------------------|
|-------5------3-------|
|--3-------------------|

Riff solo 
|---------------------|--------------------|---------------------|---------------------|
|---------------------|------5------3------|---------------------|---------------------|
|--6------5------3----|--------------------|--6------5------3----|--L----5------6------|
|---------------------|--------------------|---------------------|---------------------|

|-----------------|--------------------|--------------------------|--------------------|
|-----------------|--------------------|--------------------------|-------5------3-----|
|--8----6----5----|----6------5----6-5-|--3--3--------------0--3--|--------------------|
|-----------------|--------------------|--------6--5--6--3--------|--------------------|
      
|---------------------|-------------------|-----------------------|-------------------|
|---------------------|------5-----3------|-----------------------|-------------------|
|--6------5------3----|-------------------|--6------5----6-5-3----|-----5------6------|
|---------------------|-------------------|-----------------------|-------------------|

Second part solo Glenn solo 
Riff 
|----------------------|---------------------|-------------------|-------------------|
|----------------------|---------------------|-------------------|-------------------|
|--8------6------5-----|----6----6--5----6-5-|-------------------|-------------------|
|----------------------|---------------------|--3-----3-----3----|----3----3----4----|


|---------------------|------------------------|-----------------|--------------------|
|---------------------|------------------------|-----------------|--------------------|
|---------------------|------------------------|--7----7----7----|--7------7--8--8----|
|--3------3------3----|--3--3------3S--4--4----|-----------------|--------------------|

|---------------------|----------------------|
|---------------------|----------------------|
|--7------7------7----|----7------7--8--8----|
|---------------------|----------------------|

The repeat the riff of  :
*prechorus
* Chorus  riff

|--------------------------------|
|--------------------------------|
|--------------------------------|
|--7----5----3----7----5----3----|

Main riff
…………
|--------------------------|-----------------------|-----------------------|-------|
|--------------------------|-----------------------|-----------------------|-------|
|--------------------------|-----------------------|--10----9----5----9----|--=----|
|--3--0-0-0--2-----0--L----|--3----3----x--5----7--|-----------------------|-------|

|---------|--------------------------|-----------|
|---------|--------------------------|-----------|
|---------|--7--7--5--7--(7)S--------|--(x)------|
|---------|--------------------------|-----------|


Suggest correction
Give kudos to tab author, rate the tab!
1 2 3 4 5
comments
print report bad tab
guest
You may want to rate the tab now too:
select rating
Wanna post a correction for this tab? Suggest correction