Oops, an error
Loading. Please wait.

Living After Midnight solo tab

version 1
version 1
1,566 views 18 this week
no commentswrite comment
1 2 3 4 5
x 5
add to favorites
×
Save as Personal and add changes to this tab that will be seen only by you. Learn more ›
×
You can save this tab as Personal to edit and correct it or add notes. All changes will be seen only by you. Learn more »
launch autoscroll
font size
0
reset
how to read this tab
guitar tuner
backing track
0:00
0:00
edit
Autoscroll
slow
fast
+/-
esc
set tempo
stop
*** JUDAS PRIEST - Living After Midnight (solo) ***
Originally played by Glenn Tipton (1980)

Tabbed by Jon Malmin (4/9-2015)
E-mail: jogusmal@hotmail.com

Tuning: Standard E

One of Glenn's easiest solos to learn! This tab captures his way of playing it,
with finger positions having been checked against numerous live clips and every
note confirmed individually by listening to the song at a slower tempo. Enjoy!
   
E||-------------------------------|------------------------------|
B||--10b12--10b12--10-------------|------------------------------|
G||--------------------12--9------|--9~~~~9------9--11p9--11b12--|
D||---------------------------12--|----------11------------------|
A||-------------------------------|------------------------------|
E||-------------------------------|------------------------------|
              
                *      *   *
|---------------------------------|--------------------|
|---------------------------------|--------------------|
|----11b12----11b12--11pb--11--9~~|~~~~~~~~~~----9h11--|
|---------------------------------|----------11--------|
|---------------------------------|--------------------|
|---------------------------------|--------------------|


|-------------------------------|-----------------------------|
|--10b12--10b12--10-------------|-----------------------------|
|--------------------12--9------|--9~~~~~9------9------9--\-/-|
|---------------------------12--|-----------11-----11---------|
|-------------------------------|-----------------------------|
|-------------------------------|-----------------------------|
              

|---------22----------------------||
|--22b24------22b24r22--20--22b~~~||
|---------------------------------||
|---------------------------------||
|---------------------------------||
|---------------------------------||


What the letters and symbols mean:

b: bend
r: release from bend
h: hammer-on
p: pull-off
~: vibrato
\: slide down
/: slide up
*: pinch harmonic (displayed above row)
Suggest correction
Creating personal tab
Creating personal tab
You can edit any tab online and save it as your Personal.

You can edit, replace or remove any tab part or add personal notes – all changes will be seen only by you.

Personal tabs can be accessed anytime from any device, even offline.
Learn more »
comments
print report bad tab
guest
You may want to rate the tab now too:
select rating
Wanna post a correction for this tab? Suggest correction