Oops, an error
Loading. Please wait.

Living After Midnight Tab

version 2
version 2
6,319 views 6 this week
no commentswrite comment
1 2 3 4 5
accurate
x 2
add to favorites
launch autoscroll
font size
0
reset
how to read this tab
guitar tuner
Tab Pro tools
  • play this tab
  • loop segment
  • change instrument
  • show fretboard
  • metronome
×
Best way to learn
"Living After Midnight"
Autoscroll
slow
fast
+/-
esc
set tempo
stop
Contributor
intro
    E5   D5 A5   B5    ______   ___
                       |1, 2     |3
e|---------------------------|--------------|
B|---------------------------|--------------|
G|o--9-9--7--x-2-2--4-x-9---o|--4-----4-4---|
D|o--9-9--7--x-2-2--4-x-9---o|--4-----4-4---|
A|---7-7--5--x-0-0--2-x-7----|--2-----2-2---|
E|---0-0---------------------|--------------|

chorus: (same as intro except for part |3|)

e|-------------------|
B|-------------------|
G|--4--4----4-4--4---|
D|--4--4----4-4--4---|
A|--2--2----2-2--2---|
E|-------------------|

verse:
                                PM-----|      PM--------|
e|------------------------------------------------------|
B|------------------------------------------------------|
G|--4-9---9-9-9-9-9-9-9-9-------------------------------|
D|--4-9---9-9-9-9-9-9-9-9--5-2-----------5-2------------|
A|--2-7---7-7-7-7-7-7-7-7--5-2-----------5-2------------|
E|----0---0-0-0-0-0-0-0-0--3-0--0-0-0-0--3-0--0-0-0-0-0-|


                                PM-----|      PM--------|
e|------------------------------------------------------|
B|------------------------------------------------------|
G|--4-9---9-9-9-9-9-9-9-9-------------------------------|
D|--4-9---9-9-9-9-9-9-9-9--5-2-----------5-2------------|
A|--2-7---7-7-7-7-7-7-7-7--5-2-----------5-2------------|
E|----0---0-0-0-0-0-0-0-0--3-0--0-0-0-0--3-0--0-0-0-0-0-|



pre-chorus:

        F#5
e|--------------------|
B|--------------------|
G|-----------4---4-9--|
D|--5----4---4---4-9--|
A|--5----4---2---2-7--|
E|--3----2---------0--|

bridge:                      ____________________________ ____
                             |1,2,3                      | 4
        D5                     PM-------|       PM-----|  
e|-------------------------------------------------------|-----------|
B|------3--3------3--3--3--------------------------------|-----------|
G|o--2--2--2-2--2-2--2--2-2---9-------------------------o|--4--7--4--|
D|o--2--0--0-2--2-0--0--0-2---9------------5--2---------o|--4--7--4--|
A|---0-------0--0---------0---7------------5--2----------|--2--5--2--|
E|----------------------------0-0-0-0-0-0--3--0-0-0-0-0--|-----------|

solo
E-------------------------------------------------------|
B-------------------------------------------------------|
G----------11----11b(12)-(12)-(12)(12)-11-9~~-----------|
D-14-11-14----14----------------------------------------|
A-------------------------------------------------------|
E-------------------------------------------------------|

E---------------------------------------------------|
B---------------------------------------------------|
G-14b(15)-14b(16)-14-12-----------------------------|
D-----------------------14-12-14~-14-11-14-11-14~---|
A---------------------------------------------------|
E---------------------------------------------------|

E--------------22---------------------------------------|
B------22b(24)----22b(24)r(22)-20-22b(24)~~~~~~-(24)\---|
G--/19--------------------------------------------------|
D-------------------------------------------------------|
A-------------------------------------------------------|
E-------------------------------------------------------|

________________________________________________________
intro
chorus
verse
pre-chorus
chorus
verse
pre-chorus
chorus
bridge
solo
verse
pre-chorus
chorus (3x and fade)

_____________________________________________________________________

Legend:
X      : Mute strings with fretting hand
3qb    : Quarter bend (very slight bend)
pm     : Palm muting (with picking hand)
14b(16): Strike first note, then bend to pitch of second note. Do not pick second note
~~     : Vibrato
p.h.   : Pinch harmonic
/      : slide to note
(24)/  : slide down neck without striking the note first
comments
We did not receive enough feedback on this tab! Please rate:
print report bad tab
1 2 3 4 5
I want to post or [tab]
guest
You may want to rate the tab now too:
select rating
Please do not post tabs as comments. Select "correction" instead!