Oops, an error
Loading. Please wait.

Living After Midnight Tab

version 3
version 3
23,110 views 27 this week
no commentswrite comment
1 2 3 4 5
x 5
add to favorites
launch autoscroll
font size
0
reset
how to read this tab
guitar tuner
Autoscroll
slow
fast
+/-
esc
set tempo
stop
Help us to improve Ultimate-Guitar.com Take our survey!
×
Author
----------------------------------------------------------------------------
                  Living After Midnight - Judas Priest
----------------------------------------------------------------------------
Tabbed by: AC/DCgal
Email: ashleythepoopface@yahoo.com

Tuning: standard

this is the whole song except for the solo

chorus:
e|----------------------------|
B|----------------------------|
G|---9-9--7-------------------|     x2
D|---9-9--7--7-7-7--9---9-----|
A|---7-7--5--7-7-7--9---9-----|
E|-----------5-5-5--7---7-----|

e|--------------------------------------|
B|--------------------------------------|
G|----9-9--7----------------------------|
D|----9-9--7--7-7-7--9-9--9---9-9--9----|
A|----7-7--5--7-7-7--9-9--9---9-9--9----|
E|------------5-5-5--7-7--7---7-7--7----|

e|----------------------------|
B|----------------------------|
G|---9-9--7-------------------|     x2
D|---9-9--7--7-7-7--9---9-----|
A|---7-7--5--7-7-7--9---9-----|
E|-----------5-5-5--7---7-----|

e|--------------------------------------|
B|--------------------------------------|
G|----9-9--7----------------------------|
D|----9-9--7--7-7-7--9-9--9---9-9--9----|
A|----7-7--5--7-7-7--9-9--9---9-9--9----|
E|------------5-5-5--7-7--7---7-7--7----|



e|---------------------------------------------------------------------|
B|---------------------------------------------------------------------|
G|---------------------------------------------------------------------|  x2
D|--2-x-2-x-2-x-2-x-2-x-2-x-2-x-2-5-2-2-2-2-2-2-2-2-5-2-2-2-2-2-2-2-2--|
A|--2-x-2-x-2-x-2-x-2-x-2-x-2-x-2-5-2-2-2-2-2-2-2-2-5-2-2-2-2-2-2-2-2--|
E|--0-x-0-x-0-x-0-x-0-x-0-x-0-x-0-3-0-0-0-0-0-0-0-0-3-0-0-0-0-0-0-0-0--|


e|-----------------------------|
B|-----------------------------|
G|--------------------4--------|
D|--5--------4--------4--------|
A|--5--------4--------2--------|
E|--3--------2-----------------|


chorus:
e|----------------------------|
B|----------------------------|
G|---9-9--7-------------------|     x2
D|---9-9--7--7-7-7--9---9-----|
A|---7-7--5--7-7-7--9---9-----|
E|-----------5-5-5--7---7-----|

e|--------------------------------------|
B|--------------------------------------|
G|----9-9--7----------------------------|
D|----9-9--7--7-7-7--9-9--9---9-9--9----|
A|----7-7--5--7-7-7--9-9--9---9-9--9----|
E|------------5-5-5--7-7--7---7-7--7----|



e|---------------------------------------------------------------------|
B|---------------------------------------------------------------------|
G|---------------------------------------------------------------------|  x2
D|--2-x-2-x-2-x-2-x-2-x-2-x-2-x-2-5-2-2-2-2-2-2-2-2-5-2-2-2-2-2-2-2-2--|
A|--2-x-2-x-2-x-2-x-2-x-2-x-2-x-2-5-2-2-2-2-2-2-2-2-5-2-2-2-2-2-2-2-2--|
E|--0-x-0-x-0-x-0-x-0-x-0-x-0-x-0-3-0-0-0-0-0-0-0-0-3-0-0-0-0-0-0-0-0--|

e|-----------------------------|
B|-----------------------------|
G|--------------------4--------|
D|--5--------4--------4--------|
A|--5--------4--------2--------|
E|--3--------2-----------------|


chorus:
e|----------------------------|
B|----------------------------|
G|---9-9--7-------------------|     x2
D|---9-9--7--7-7-7--9---9-----|
A|---7-7--5--7-7-7--9---9-----|
E|-----------5-5-5--7---7-----|

e|--------------------------------------|
B|--------------------------------------|
G|----9-9--7----------------------------|
D|----9-9--7--7-7-7--9-9--9---9-9--9----|
A|----7-7--5--7-7-7--9-9--9---9-9--9----|
E|------------5-5-5--7-7--7---7-7--7----|



e|-----------------------------------------------|
B|----3-3---3-3-3--------------------------------|
G|--2-2-2-2-2-2-2-2-9----------------------------|     x3
D|--2-0-0-2-0-0-0-2-9-------------5--------------|
A|--0-----0-------0-7-------------5--------------|
E|--------------------0-0-0-0-0-0-3-0-0-0-0-0-0--|

e|-----------------------------------|
B|----3-3---3-3-3--------------------|
G|--2-2-2-2-2-2-2-2-9---4---7---4----|
D|--2-0-0-2-0-0-0-2-9---4---7---4----|
A|--0-----0-------0-7---2---5---2----|
E|-----------------------------------|


chorus:
e|----------------------------|
B|----------------------------|
G|---9-9--7-------------------|     x2
D|---9-9--7--7-7-7--9---9-----|
A|---7-7--5--7-7-7--9---9-----|
E|-----------5-5-5--7---7-----|
                                               (plays chorus thru solo)
e|--------------------------------------|
B|--------------------------------------|
G|----9-9--7----------------------------|
D|----9-9--7--7-7-7--9-9--9---9-9--9----|
A|----7-7--5--7-7-7--9-9--9---9-9--9----|
E|------------5-5-5--7-7--7---7-7--7----|



e|---------------------------------------------------------------------|
B|---------------------------------------------------------------------|
G|---------------------------------------------------------------------|  x2
D|--2-x-2-x-2-x-2-x-2-x-2-x-2-x-2-5-2-2-2-2-2-2-2-2-5-2-2-2-2-2-2-2-2--|
A|--2-x-2-x-2-x-2-x-2-x-2-x-2-x-2-5-2-2-2-2-2-2-2-2-5-2-2-2-2-2-2-2-2--|
E|--0-x-0-x-0-x-0-x-0-x-0-x-0-x-0-3-0-0-0-0-0-0-0-0-3-0-0-0-0-0-0-0-0--|

e|-----------------------------|
B|-----------------------------|
G|--------------------4--------|
D|--5--------4--------4--------|
A|--5--------4--------2--------|
E|--3--------2-----------------|


chorus:
e|----------------------------|
B|----------------------------|
G|---9-9--7-------------------|     x2
D|---9-9--7--7-7-7--9---9-----|
A|---7-7--5--7-7-7--9---9-----|
E|-----------5-5-5--7---7-----|

e|--------------------------------------|
B|--------------------------------------|
G|----9-9--7----------------------------|
D|----9-9--7--7-7-7--9-9--9---9-9--9----|
A|----7-7--5--7-7-7--9-9--9---9-9--9----|
E|------------5-5-5--7-7--7---7-7--7----|

play chorus til end

ROCK ON!!!

Suggest correction
comments
print report bad tab
guest
You may want to rate the tab now too:
select rating
Wanna post a correction for this tab? Suggest correction