Oops, an error
Loading. Please wait.

Living After Midnight Tab

version 5
version 5
94,474 views 48 this week
10 commentsread comments
1 2 3 4 5
x 55
add to favorites
launch autoscroll
font size
0
reset
how to read this tab
guitar tuner
Autoscroll
slow
fast
+/-
esc
set tempo
stop
Help us to improve Ultimate-Guitar.com Take our survey!
×
Author
Livin' After Midnight - Judas Priest

Tabbed by: Donald Stephens
E-mail: Taylorcenter2001@hotmail.com

Tuning: Standard, with distortion


[Intro]
E----------------------------------------------------------|
B-9-9-x--7--2-2-x--4----9-9-x--7--2-2-x--4-----------------|
G-9-9-x--7--2-2-x--4----9-9-x--7--2-2-x--4-----------------|
D-9-9-x--7--2-2-x--4----9-9-x--7--2-2-x--4-----------------|
A-7-7-x--5--0-0-x--2----7-7-x--5--0-0-x--2-----------------|
E----------------------------------------------------------|

E-----------------------------------------------|
B-9-9-x--7--2-2-x--4--44-4--44-4----------------|
G-9-9-x--7--2-2-x--4--44-4--44-4----------------|
D-9-9-x--7--2-2-x--4--44-4--44-4----------------|
A-7-7-x--5--0-0-x--2--22-2--22-2----------------|
E-----------------------------------------------|

[Verse:]                 pm----|      pm---------|
E------------------------------------------------|
B------------------------------------------------|
G-9-9-9-9-9-9-9-9--------------------------------|
D-9-9-9-9-9-9-9-9--------------------------------| repeat
A-7-7-7-7-7-7-7-7------2------------2------------|
E------------------3qb-0-000000-3qb-0-000000-----|

E-3--------------------------------|
B-3--------------------------------|
G-0--------4--7--------------------|
D-0---0-4--4--7--------------------|
A-----x-4--2--5--------------------|
E-----3-2--------------------------|

Parts before solo:    pm----|      pm----------------------|  *on 4th time*
E----------------------------------------------------------|
B-22-3--3-2--3-3-3-2-------------------------4--7--4-------|
G-22-2--2-2--2-2-2-2-------------------------4--7--4-------|
D-22-4--4-2--4-4-4-2-------------------------4--7--4-------|
A-00------0--------0-2------------2----------2--5--2-------|
E--------------------0-000000-3qb-0-000000-----------------|


[Solo]
E------------------------------------------|
B------------------------------------------|
G-14b(16)-14b(16)-14-12--------------------|
D-----------------------14-12-14~----------|
A------------------------------------------|
E------------------------------------------|
                 Hold bend-----------------|
                             p.h-----|
E-------------------------------------------------------|
B-------------------------------------------------------|
G----------11----11b(12)-(12)-(12)(12)-11-9~~-----------|
D-14-11-14----14----------------------------------------|
A-------------------------------------------------------|
E-------------------------------------------------------|

E---------------------------------------------------|
B---------------------------------------------------|
G-14b(15)-14b(16)-14-12-----------------------------|
D-----------------------14-12-14~-14-11-14-11-14~---|
A---------------------------------------------------|
E---------------------------------------------------|

E--------------22---------------------------------------|
B------22b(24)----22b(24)r(22)-20-22b(24)~~~~~~-(24)\---|
G--/19--------------------------------------------------|
D-------------------------------------------------------|
A-------------------------------------------------------|
E-------------------------------------------------------|

Simply repeat whatever section you need after that. This is a great song to play, 
solo or in a band!!!!!


*******************************************

Legend:
X      : Mute strings with fretting hand
3qb    : Quarter bend (very slight bend)
pm     : Palm muting (with picking hand)
14b(16): Strike first note, then bend to pitch of second note. Do not pick second note
~~     : Vibrato
p.h.   : Pinch harmonic
/      : slide to note
(24)/  : slide down neck without striking the note first

*******************************************
Suggest correction
comments
print report bad tab
10 comments total. Showing first comments.
+2 reply
welby 253 May 19, 2008 05:25 PM

great tab man.
keep on rockin.

+3 reply
HardRockKid 10 May 27, 2008 02:02 PM

Excelent tab very easy especially the solo

+2 reply
acidrainman64 50 Jul 18, 2008 10:57 PM

good tab

guest
You may want to rate the tab now too:
select rating
Wanna post a correction for this tab? Suggest correction