Oops, an error
Loading. Please wait.

Living Bad Dreams Tab

version 1
version 1

Whole song

Interactive

4,779 views 6 this week
no commentswrite comment
1 2 3 4 5
excellent!
x 3
add to favorites
launch autoscroll
font size
0
reset
how to read this tab
guitar tuner
Tab Pro tools
  • play this tab
  • loop segment
  • change instrument
  • show fretboard
  • metronome
×
Best way to learn
"Living Bad Dreams"
Autoscroll
slow
fast
+/-
esc
set tempo
stop
Difficulty
intermediate
Band : judas priest
Álbum :painkiller
Song living bad dreams


Intro and verse
Riff 1

E||----------------------------|---------------------------|---------------------------|
B||----------------------------|---------------------------|---------------------------|
G||-----9----------------------|--------0------------------|-----9---------------------|
D||--------9------7------------|-----5------------7--7~----|--------9------7-----------|
A||--7--------10-----10--9S----|--3--------3s--5-----------|--7--------10-----10--9S---|
E||----------------------------|---------------------------|---------------------------|

|--------------------------|----------------------------|-------------------------|
|--------------------------|----------------------------|-------------------------|
|--------5~----------5~----|-----9----------------------|--------0----------------|
|-----5--5~-------5--5~----|--------9------7------------|-----5------------7--7~--|
|--3-----------3-----------|--7--------10-----10--9S----|--3--------3s--5---------|
|--------------------------|----------------------------|-------------------------|
|----------------------------|----------------------------------------------------|
|----------------------------|----------------------------------------------------|
|-----9----------------------|----------------------------------------------------|
|--------9------7------------|----------------------------------------------------|
|--7--------10-----10--9S----|--3-------------------------------------------------| (x3)
|----------------------------|----------------------------------------------------|


Guitar 2(second part of verse
  <                            PM PM                  PM PM                 PM PM
-------------------|----------------------|---------------------|----------------------|
-------------------|----------------------|---------------------|----------------------|
--5----------------|----------------------|---------------------|----------------------|
--5----------------|--2-------------------|--2------------------|--2-------------------|
--3----------------|--2-------------------|--0------------------|--2-------------------|
-------------------|--0--------3--2--0----|-----------3--2------|--0--------3--2--0----|
(x2)
---------------|
|--------------|
|--5-----------|
|--5-----------|
|--3-----------|
|--------------|

Pre chorus
Guitar 1

|----------|-------------------|---------------|
|----------|-------------------|---------------|
|--2-------|--=----------------|---------------|
|--2-------|--=----------------|--3------------|
|--0-------|--=----------------|--3------------|
|----------|-------------------|--1------------|

-------------------|----------------|--------------|
-------------------|----------------|--------------|
-------------------|--2-------------|--5-----------|
------------5------|--2-------------|--5-----------|
------------5------|--0-------------|--3-----------|
---------1--3------|----------------|--------------|

--------------------------|----------------|
--------------------------|----------------|
--------------------------|----------------|
--7-----------------------|--9-------------|
--5--5--5--5--5--5--5--5--|--7-------------|
--------------------------|----------------|

Second guitar
|--------------------------|---------------------------|
|--------------------------|---------------------------|
|--------4-----5-----4--5--|--------4-----5--L--4--5~--|
|--------------------------|---------------------------|
|--0--0-----0-----0--------|--0--0-----0---------------|
|--------------------------|---------------------------|

|--------------------------|
|--------0---=--=----0--=--|
|--------4h--5--5----4--5--|
|--3--3--------------------|
|--------------------------|
|--------------------------|

--------------------------|--------------------------|-------------------------|
--------0---L--L----0--L--|--------------0-----------|-------------------------|
--------4h--5--5----4--5--|-----------2--4--5--4--5--|--------5--4--5----4--5--|
--3--3--------------------|--------2-----------------|-----5--------5----L--L--|
--------------------------|--0--0--------------------|--3----------------------|
--------------------------|--------------------------|-------------------------|


Chorus


|----------------------|---------------------|
|----------------------|---------------------|
|----------------------|---------------------|
|--5--7------7------3--|--L--3--5------------|
|--5--7------7------3--|--L--3--5------------|
|--3--5------5------1--|--L--1--3------------|

-----------------------|------------------------|----------------------|---------------|
-----------------------|------------------------|----------------------|---------------|
-----------------------|------------------------|----------------------|---------------|
--5--7------7------7S--|--L--3--5----L----------|--5--7------7------3--|--L--3--5------|
--5--7------7------7S--|--L--3--5----L----------|--5--7------7------3--|--L--3--5------|
--3--5------5------5S--|--L--1--3----3----1--0--|--3--5------5------1--|--L--1--3------|

-------------------|--------|
-------------------|--------|
-------------------|--------|
--3----------------|--=-----|
--3----------------|--=-----|
--1----------------|--=-----|
 Riff brideg guitar 2
Play same time riff 1

|----------------------------|----------------------------|
|----------------------------|----------------------------|
|-----9----------------------|--------5-------------------|
|---------------7------------|-----5-----------7----7~----|
|--7-----9--10-----10--9S----|--3--------3--5-------------|
|----------------------------|----------------------------|

----------------------------|------------------------|----------------------------|
----------------------------|------------------------|----------------------------|
-----9----------------------|--------5----------5----|-----9----------------------|
---------------7------------|--------5----------5----|---------------7------------|
--7-----9--10-----10--9S----|--3--3-------3--3-------|--7-----9--10-----10--9S----|
----------------------------|------------------------|----------------------------|


-----------------------------|----------------------------|--------------------------|
-----------------------------|----------------------------|--------------------------|
--------0-----------7--------|-----9----------------------|--------------------------|
-----5-----------------7~----|---------------7------------|--------------------------|
--3--------3s--5-------------|--7-----9--10-----10--9S----|--10--9--7----10---9---7--|
-----------------------------|----------------------------|--------------------------|

Riff solo
Play before and after


----------------------------|----------------------------|----------------------------|
----------------------------|----------------------------|----------------------------|
----------------------------|----------------------------|----------------------------|
----------------------------|----------------------------|----------------------------|
-----7--9--10--9--7--9--10--|-----7--9--10--9--7--9--10--|-----7--9--10--9--7--9--10--|
--8-------------------------|--8-------------------------|--8-------------------------|


this song was made in guitar pro i only transcribed wnojiy judas priest forever
comments
We did not receive enough feedback on this tab! Please rate:
print report bad tab
1 2 3 4 5
I want to post or [tab]
guest
You may want to rate the tab now too:
select rating
Please do not post tabs as comments. Select "correction" instead!