Oops, an error
Loading. Please wait.

Locked In Tab

version 1
version 1

Whole song

Interactive

2,472 views 3 this week
no commentswrite comment
1 2 3 4 5
please rate
add to favorites
launch autoscroll
font size
0
reset
how to read this tab
guitar tuner
Autoscroll
slow
fast
+/-
esc
set tempo
stop
Help us to improve Ultimate-Guitar.com Take our survey!
×
Author
Difficulty
advanced
Judas Priest
"Locked In"
album :turbo
Transcripted by
p.a.l.s
e-mail: paulis_ls.5@hotmail.com
_______________________________


Guitar
Rithm1
E||------------------|------------------|-----5--------5--------5--|-----3-----------0-------|
B||------------------|------------------|-----5--------5--------5--|-----3--------3--0--3----|
G||------------------|------------------|--------------------------|--------------2-----2----|
D||------------------|------------------|--------------------------|-------------------------|
A||------------------|------------------|--0-----0--0-----0--0-----|--0-----0--0-------------|
E||------------------|------------------|--------------------------|-------------------------|

-----5--------5--------5--|-----3-----------------|-----5--------5--------5--|
-----5--------5--------5--|-----3--------3--------|-----5--------5--------5--|
--------------------------|--------------2--------|--------------------------|
--------------------------|-----------------------|--------------------------|
--0-----0--0-----0--0-----|--0-----0--0-----------|--0-----0--0-----0--0-----|
--------------------------|-----------------------|--------------------------|

-----3-----------0-------|
-----3--------3--0--3----|
--------------2-----2----|
-------------------------|
--0-----0--0-------------|
-------------------------|

pre chorus

  P.M.    P.M.---|
|---------------------|---------------------|
|---------------------|---------------------|
|---------------------|------------------2--|
|---------------------|------------------2--|
|--L------------L--5--|--L------------L--0--|
|--L------------L--3--|--L------------L-----|


-------------------|-----------------------------|---------------------|
-------------------|-----------------------------|---------------------|
--L----------------|--L--------------------------|---------------------|
--L----------------|--L--------------------------|---------------------|
--L----------------|--L--3S-5--4-----5--4--------|---------------------|
-------------------|--------------5--------5--2--|--L------------L--3--|

--------------------|
--------------------|
--------------------|
-----------------7--|
-----------------7--|
--------------L--5--|

     P.M.-------------------------------------|
----------------------------------------------|
----------------------------------------------|
--------------7-----7-----7-------------------|
--5--------------5-----5-----0----------------|
----------------------------------------------|
----------------------------------------------|

  ------------------------------|

-------------------------------------------|
-------------------------------------------|
------------------------7-----------7S--5--|
--4------------------4-----0--4--4---------|
-------------------------------------------|
-------------------------------------------|

--------------------------|
--------------------------|
--5--5--5--5--5--5--5--7--|
--3--3--3--3--3--3--3--5--|
--------------------------|
--------------------------|

chorus

|-------------|
|-------------|
|-------------|
|-------------|
|-------------|
|----0--0--0--|


  P.M.-------|                         P.M.-------|             P.M.----|

-------------------------------|-----------------------------------------|
-------------------------------|-----------------------------------------|
---------------------7---------|----------------------7--9---------------|
---------------------7---------|----------------------7--9---------------|
-------------------------------|-----------------------------------------|
--7------------7--7------------|---7------------7--7--------7---------7--|


  Let ring throughout
-----------------------3--------3-----|-----------------------|
-----------------------3--------3-----|--------3--3-----------|
-----------------------4--------4-----|--------4--4-----------|
--------------------------------------|--------5--5--7--7--7--|
--5--------------5--5--------5-----5--|--------5--5--7--7--7--|
--3--------------3--3--------3-----3--|--------3--3--5--5--5--|


  P.M.-------|                         P.M.-------|             P.M.----|

--------------------------------|-----------------------------------------|
--------------------------------|-----------------------------------------|
---------------------7----------|----------------------7--9---------------|
---------------------7----------|----------------------7--9---------------|
--------------------------------|-----------------------------------------|
--7------------7--7-------------|-----7----------7--7--------7---------7--|


  Let ring throughout
------------------------3--------3-----|------------------------|
------------------------3--------3-----|---------3--3-----------|
------------------------4--------4-----|---------4--4-----------|
---------------------------------------|---------5--5--7--7--7--|
--5---------------5--5--------5-----5--|--L------5--5--7--7--7--|
--3---------------3--3--------3-----3--|--L------3--3--5--5--5--|


Solo glen tipton

E||----------------9~--|----------------9---|-------------------------|--------------------|
B||----------------12b-|----------------12b-|-------------------------|--------------------|
G||--------------------|--------------------|---------------------11~-|--------------------|
D||--------------------|--------------------|------11----9/---11--9~--|-----------x/-------|
A||--------------------|--------------------|-------------------------|----------------x/--|
E||--------------------|--------------------|-------------------------|--------------------|

-----9-------9--9\-----|--16p12----12-17p12----12-16p12----12-17p12----12-|
-----9--9----9--9\-----|--------14----------14----------14----------14----|
--------9--------------|--------------------------------------------------|
--x--------------------|--------------------------------------------------|
--x--------------------|--------------------------------------------------|
-----------------------|--------------------------------------------------|

-16p12----12-17p12----12-16p12----12-17p12----12-|--16p12----12-17p12----16-16p12----12----------|
-------14----------14----------14----------14----|--------14----------14----------14----14--14h17|
-------------------------------------------------|-----------------------------------------------|
-------------------------------------------------|-----------------------------------------------|
-------------------------------------------------|-----------------------------------------------|
-------------------------------------------------|-----------------------------------------------|

--16----17-21-17----17----16----16\-----|-------------------------|-----------------------|
-----19----------19----19----19---------|-------------------------|-----------------------|
----------------------------------------|-----------9-------------|-----------------------|
----------------------------------------|--------6--11------------|------11----9/---11----|
----------------------------------------|-----7-------------------|-----------------------|
----------------------------------------|--9----------------------|-----------------------|

----------------------|----------------------|-----------------------------|
----------------------|----------------------|------9-----9-----9----------|
----------------------|----------------------|------11b---11b---11b-----3/-|
--9--7--6--6~---------|--6--7--6--4~---------|-----------------------------|
----------------------|----------------------|-----------------------------|
----------------------|----------------------|-----------------------------|


------------------------------|--17p-16---------------12p-11---------------|------------------7/-|
------------------------------|----------17p-16---------------12\-9--------|---------------------|
--13--11b--11b--11b--11/17p16-|------------------16\-----------------9p-8--|---------------------|
------------------------------|--------------------------------------------|--11-----------------|
------------------------------|--------------------------------------------|---------------------|
------------------------------|--------------------------------------------|---------------------|

--9h12p9------------9h12p9-----9-----|--9h12p9-----9-----9h12p9-------------9h12p|
---------9--------9--------9---9-----|---------9---9---9--------9----------------|
-----------9h13p9------------9---9-9-|-----------9---9------------9h13p9h13------|
-------------------------------------|-------------------------------------------|
-------------------------------------|-------------------------------------------|
-------------------------------------|-------------------------------------------|

--9h12p9------------9h12p9------------|--9h12p9---9-------9h12p9----------|
---------9--------9--------9--------9-|---------9---9---9--------9------9-|
-----------9----9------------9----9---|---------------9------------9--9---|
-------------11----------------11-----|-----------------------------------|
--------------------------------------|-----------------------------------|
--------------------------------------|-----------------------------------|

--7h11p7-----------11p7---7-----------|--11p7-7-----------7-11p7-----------|
---------7-------7------7---7-------7-|-------7-7---7---7--------7---------|
-----------8---8--------------8---8---|-----------8---8------------8---8---|
-------------9------------------9-----|------------------------------9---9-|
--------------------------------------|------------------------------------|
--------------------------------------|------------------------------------|


-------------------------------------|---------------------------------------11h13----13p|
------------------------------7h9h11p|--9p7-------------------------11h13h14-------13----|
----------6h8h10p8-6\5/6h8h10--------|------10p8----------10-12-13-----------------------|
--6h-8h10----------------------------|-----------11-10/13--------------------------------|
-------------------------------------|---------------------------------------------------|
-------------------------------------|---------------------------------------------------|

--11-------------13---------------------------------------16-|--16\---------------|
-----14p13p11-------16p14p13---------------------------------|--------------------|
--------------13-------------17p15p13-17p13-13-13h17p13/-----|--------------------|
-------------------------------------------------------------|--------------------|
-------------------------------------------------------------|--------------------|
-------------------------------------------------------------|--------------------|

Locked In
(Tipton/Halford/Downing)

I can't stand the way you move it
You drive me crazy with that walk
You get me so excited
I tremble and I shake
When you make the moves you make

You've got the key
The key to my heart
Go ahead and use it
Drag me in, slam the door
Then I'll be yours, for evermore

You've got me locked in
Locked inside your love
You've got me locked in
Locked inside your love

I can't take it when you touch me
Feels so good I could explode
You've got me in a frenzy
I tremble and I quake
When you shake the things you shake

You've got the key
The key to my heart
Go ahead and use it
Drag me in, slam the door
Then I'll be yours, for evermore

You've got me locked in
Locked inside your love
You've got me locked in
Locked inside your love
Locked in
Locked inside your love
You've got me locked in
Locked inside your love

You've got the key
The key to my heart
Go ahead and use it
Drag me in, slam the door
Then I'll be yours, for evermore

You've got me locked in
Locked inside your love
You've got me locked in
Locked inside your love
You've got me locked in, baby
Locked inside your love
You've got me locked in
Locked inside your love

You've got me locked in, baby
Locked inside your love
You've got me locked in
Locked inside your love
You've got me locked in
Locked inside your love
You've got me locked in
Locked inside your love

(fade)
Suggest correction
Give kudos to tab author, rate the tab!
1 2 3 4 5
comments
print report bad tab
guest
You may want to rate the tab now too:
select rating
Wanna post a correction for this tab? Suggest correction