Oops, an error
Loading. Please wait.

Lost And Found Tab

version 1
version 1

Whole song

Interactive

3,504 views 4 this week
no commentswrite comment
1 2 3 4 5
please rate
add to favorites
launch autoscroll
font size
0
reset
how to read this tab
guitar tuner
Tab Pro tools
  • play this tab
  • loop segment
  • change instrument
  • show fretboard
  • metronome
×
Best way to learn
"Lost And Found"
Autoscroll
slow
fast
+/-
esc
set tempo
stop
Difficulty
novice
judas priest

album:demolition

song : lost and found



D|-0-----0-----0---|-----------------------------------|-----------------3------------|
A|-0-----0-----0---|-------------1---------------------|---------------------3--------|
F|-0-----0-----0---|---------0-------0--2--0-------0---|-------------0-----------0----|
C|-2-----2-----2---|-----2---------------------0-------|---------0----------------0---|
G|-2-----2-----2---|-3---------------------------------|-----2------------------------|
D|-0-----0-----0---|-----------------------------------|-3----------------------------|


D|-------------2---0--2--0----------|------------------------------|-----------------------------|
A|---------3-----------------3------|--------------0---1-----------|-------------1---------------|
F|-----2-------------------------2--|----------2-----------2-------|---------0-----0--2--0---0---|
C|-0--------------------------------|------2-------------------2---|-----2----------------0------|
G|----------------------------------|-0----------------------------|-3---------------------------|
D|----------------------------------|------------------------------|-----------------------------|

D|-------------2---0---2-----------|-------------2---2-------2-------|-------0-----0---|
A|---------3---------------3-------|---------3-------3-------3-------|-------0-----0---|
F|-----2-----------------------2---|-----2-----------2-------2-------|-------0-----0---|
C|-0-------------------------------|-0---------------0-------0-------|-2-----2-----2---|
G|---------------------------------|---------------------------------|-2-----2-----2---|
D|---------------------------------|---------------------------------|-0-----0-----0---|


D|-----------3----3---3---|-2-----2----2---2---|-------0---0---0---0---|-0-----0-----0---|
A|-----------3----3---3---|-3-----3----3---3---|-1-----1---3---1---0---|-0-----0-----0---|
F|-----------0----0---0---|-2-----2----2---2---|-2-----2---2---2---2---|-0-----0-----0---|
C|-----------0----0---0---|-0-----0----0---0---|-2-----2---2---2---2---|-2-----2-----2---|
G|-----------2----2---2---|--------------------|-0-----0---0---0---0---|-2-----2-----2---|
D|-3-----3---3----3---3---|--------------------|-----------------------|-0-----0-----0---|


D|-----------3----3---3---|-2------|-2------------------|-------0-----0---|-0-----0----0---0---|
A|-----------3----3---3---|-3------|-3------------------|-------0-----0---|-1-----1----1---1---|
F|-----------0----0---0---|-2------|-2------------------|-------0-----0---|-0-----0----0---0---|
C|-----------0----0---0---|-0------|-0------------------|-2-----2-----2---|-2-----2----2---2---|
G|-----------2----2---2---|--------|--------------------|-2-----2-----2---|-3-----3----3---3---|
D|-3-----3---3----3---3---|--------|-------3---2----3---|-0-----0-----0---|-3-----3----3---3---|


D|-2-----2----2---2---|-0-----0----0---0---|-0---------2---------|-3-----0-----0----|
A|-3-----3----3---3---|-2-----2----2---2---|-2---------4---------|-3-----1-----1----|
F|-2-----2----2---2---|-2-----2----2---2---|-2---------4---------|-0-----0-----2----|
C|-0-----0----0---0---|-2-----2----2---2---|-2---------4---------|-0-----2-----2----|
G|--------------------|-0-----0----0---0---|-0---------2---------|-2-----3-----0----|
D|--------------------|--------------------|---------------------|-3-----3----------|


D|-0---0-----2---------|-2-----2-----2----|-2---2-----3---------|-0-----0-----0----|
A|-1---1-----3---------|-3-----3-----3----|-3---3-----3---------|-1-----1-----1----|
F|-2---2-----2---------|-2-----2-----2----|-2---2-----0---------|-0-----0-----2----|
C|-2---2-----0---------|-0-----0-----0----|-0---0-----0---------|-2-----2-----2----|
G|-0---0---------------|------------------|-----------2---------|-3-----3-----0----|
D|---------------------|------------------|-----------3---------|-3-----3----------|


D|-0---0-----0----0----|-2------2------|
A|-1---1-----1----1----|-3------3------|
F|-2---2-----2----2----|-2------2------|
C|-2---2-----2----2----|-0------0------|
G|-0---0-----0----0----|---------------|
D|---------------------|---------------|


acoustic version
comments
We did not receive enough feedback on this tab! Please rate:
print report bad tab
1 2 3 4 5
I want to post or [tab]
guest
You may want to rate the tab now too:
select rating
Please do not post tabs as comments. Select "correction" instead!