Oops, an error
Loading. Please wait.

Lost Love Tab

version 1
version 1

Intro

Interactive

1,565 views 3 this week
no commentswrite comment
1 2 3 4 5
please rate
add to favorites
launch autoscroll
font size
0
reset
how to read this tab
guitar tuner
Tab Pro tools
  • play this tab
  • loop segment
  • change instrument
  • show fretboard
  • metronome
×
Best way to learn
"Lost Love"
Autoscroll
slow
fast
+/-
esc
set tempo
stop
Contributor
Difficulty
novice
    Lost love                                     


                    Judas Priest
piano (  intro for guitar)

INTRO - END

      Q     Q     Q     Q        Q     Q     Q     Q     
E||--12----------------------|--13----------------------|
B||--------13----12----10----|--------15----13----12----|
G||--------------------------|--------------------------|
D||---7----------------------|---3----------------------|
A||--------------------------|--------------------------|
E||---5----------------------|---1----------------------|


   Q     Q     Q    Q        Q     E   S  S  Q     Q     
--10---------------------|--13----12--13-12-10----------|
--------12----10----8----|------------------------13----|
-------------------------|---5--------------------------|
---5---------------------|------------------------------|
-------------------------|---3--------------------------|
---3---------------------|------------------------------|


  Q     Q     Q    Q       Q    Q    Q    Q       Q    Q    Q    Q     
--8---------------------|----------------------|----------------------|
-------12----10----8----|--8----6----5----3----|--3-------------------|
------------------------|----------------------|-------5----5----4----|
--7---------------------|--3-------------------|--5-------------------|
------------------------|----------------------|----------------------|
--5---------------------|--1-------------------|--3-------------------|


  E  H.           E     W                                     
---------------------|-------------------|-------------------|
---------------------|-------------------|-------------------|
--5--L------------L--|--L----------------|-------------------|
---------------------|-------------------|-------------------|
--3------------------|-------------------|-------------------|
---------------------|-------------------|-------------------|


Duration Legend
---------------
W - whole
H - half
Q - quarter
E - 8th
S - 16th
T - 32nd
X - 64th
. - note dotted
|-n-|  - n-tuplets

metalgod.jp@hotmail.com infor here............. priesttttttttttt foreverrrrrrrrrrrrrrrrr
comments
We did not receive enough feedback on this tab! Please rate:
print report bad tab
1 2 3 4 5
I want to post or [tab]
guest
You may want to rate the tab now too:
select rating
Please do not post tabs as comments. Select "correction" instead!