Oops, an error
Loading. Please wait.

Love Bites Tab

version 1
version 1

Whole song

Interactive

14,901 views 33 this week
no commentswrite comment
1 2 3 4 5
excellent!
x 6
add to favorites
launch autoscroll
font size
0
reset
how to read this tab
guitar tuner
Tab Pro tools
  • play this tab
  • loop segment
  • change instrument
  • show fretboard
  • metronome
×
Best way to learn
"Love Bites"
Autoscroll
slow
fast
+/-
esc
set tempo
stop
#----------------------------------PLEASE NOTE---------------------------------#
#This file is the author's own work and represents their interpretation of the #
#song. You may only use this file for private study, scholarship, or research. #
#------------------------------------------------------------------------------#
#


From rokasv@usa.net Fri May 16 08:30:35 1997
Date: Thu, 15 May 1997 03:35:00
From: Velyvis 
To: guitar@nevada.edu
Subject: TAB: "Love Bites" by Judas Priest

JUDAS PRIEST "Love Bites"
Tabbed by Rokas Velyvis

1st & 2nd verses:
When you feel safe    When you feel warm   That's when I rise    
Gliding on mist       Hardly a sound       Bring the kiss        
|---------------------|--------------------|---------------------|
|---------------------|--------------------|---------------------|
|o--------------------|--------------------|---------------------|
|o--------------6\----|---------------6\---|----------------4\---|
|---------------4\----|---------------4\---|----------------2\---|
|---------------------|--------------------|---------------------|

That's when I crawl
Evils abound
|-----------------------|
|-----------------------|
|----------------------o|
|-------------------6\-o|
|-------------------4\--|
|-----------------------|



Chorus:
  In the dead of night        Love bites    Love bites
|----------------------|---------|-------------|-------------|
|----------------------|---------|-------------|-------------|
|----------------------|---------|-------------|-------------|
|-9--8---6----4--2-----|------4--|-6--------9--|-6-----------|
|-7--6---4----2--0-----|------2--|-4--------7--|-4-----------|
|----------------------|---------|-------------|-------------|

In the dead of night        Love bites
|----------------------|---------|-----------|------------|
|----------------------|---------|-----------|------------|
|----------------------|---------|-----------|------------|
|-9--8---6----4--2-----|------4--|-----------|------------|
|-7--6---4----2--0-----|------2--|-6---------|-6\---------|
|----------------------|---------|-4---------|-4\---------|



3rd, 4th, 5th & 6th verses:
Into your room      Where in deep sleep     There you lie still      
Then I descend      Close to your lips      Across you I bend        
Now you are mine    In my control           One taste of your life   
Softly you stir     Gently you moan         Lust's in the air        
|-------------------|-----------------------|-----------------------|
|-------------------|-----------------------|-----------------------|
|-------------------|-----------------------|-----------------------|
|------------6--6\--|----------------6--6\--|----------------4--4\--|
|------------4--4\--|----------------4--4\--|----------------2--2\--|
|-------------------|-----------------------|-----------------------|

To you I creep
You smile as I sip
And I own your soul
Wake as I groan
|----------------------|
|----------------------|
|----------------------|
|---------------6--6\--|
|---------------4--4\--|
|----------------------|



Chorus:
  In the dead of night        Love bites    Love bites
|----------------------|---------|-------------|-------------|
|----------------------|---------|-------------|-------------|
|----------------------|---------|-------------|-------------|
|-9--8---6----4--2-----|------4--|-6--------9--|-6-----------|
|-7--6---4----2--0-----|------2--|-4--------7--|-4-----------|
|----------------------|---------|-------------|-------------|

  In the dead of night        Love bites
|----------------------|---------|----------|------------|
|----------------------|---------|------9\--|--7-7-7-----|
|----------------------|---------|------6\--|--4-4-4/6\--|
|-9--8---6----4--2-----|------4--|-6--------|------------|
|-7--6---4----2--0-----|------2--|-4--------|------------|
|----------------------|---------|----------|------------|

  In the dead of night        Love bites    Love bites
|----------------------|---------|-------------|-------------|
|----------------------|---------|-------------|-------------|
|----------------------|---------|-------------|-------------|
|-9--8---6----4--2-----|------4--|-6--------9--|-6-----------|
|-7--6---4----2--0-----|------2--|-4--------7--|-4-----------|
|----------------------|---------|-------------|-------------|

                            Bridge:
  In the dead of night      Love bites you  Invites you  
|----------------------|---------|-----------|------------|
|----------------------|---------|-----------|------------|
|----------------------|---------|-----------|------------|
|-9--8---6----4--2-----|------4--|-6---------|-4----------|
|-7--6---4----2--0-----|------2--|-4---------|-2----------|
|----------------------|---------|-----------|------------|

To feast in the  night
|-------------|-------------|
|-------------|-------------|
|-------------|-------------|
|-2-----------|-------------|
|-0-----------|-6-----------|
|-------------|-4-----------|

Excites you   Delights you   It drains you to white  
|--------------|---------------|-------------------|
|--------------|---------------|-------------------|
|--------------|---------------|-------------------|
|-6------------|-4-------------|-2-----------------|
|-4------------|-2-------------|-0------------6----|
|--------------|---------------|--------------4----|

Love bites
|-------------------|
|-------------------|
|-------------------|
|-------------------|
|-4----2------------|
|-2----0------------|



Gtr.I
|-----------------|-----------------|-----------------|
|-----------------|-----------------|-----------------|
|-----------------|-----------------|-----------------|
|-----------------|-----------------|-----------------|
|-4-4-4-4-4-4-4-4-|-4-4-4-4-4-4-4-4-|-4-4-4-4-4-4-4-4-|
|-----------------|-----------------|-----------------|
 P.M. . . . . . . . . . . . . . . . . . . . . . . . .



Gtr.I
|-----------------|
|-----------------|
|-----------------|
|-----------------|
|-4-4-4-4-4-4-4-4-|
|-----------------|
|P.M. . . . . . . 
|
Gtr.II
|-----------------|
|-----------------|
|-------------4-6-|
|-----------------|
|-----------------|
|-----------------|
P.M. . . . . . . .




Riff1
Gtr.II (P.M. at 3rd string)
|-7-----4---------|-----------------|
|-------------7-5-|---7---5-5-5-----|
|---6-6---6-6-----|-6---6-------4-6-|
|-----------------|-----------------|
|-----------------|-----------------|
|-----------------|-----------------|
|
Gtr.I
|-----------------|-----------------|
|-----------------|-----------------|
|-----------------|-----------------|
|-----------------|-----------------|
|-4-4-4-4-4-4-4-4-|-4-4-4-4-4-4-4-4-|
|-----------------|-----------------|
 P.M. . . . . . . . . . . . . . . .  


|-7-----4---------|-----------------|
|-------------7-5-|---7-7-5-5-5-----|
|---6-6---6-6-6-6-|-6-6-6-6-6-6-4-6-|
|-----------------|-----------------|
|-----------------|-----------------|
|-----------------|-----------------|
|
|-----------------|-----------------|
|-----------------|-----------------|
|-----------------|-----------------|
|-----------------|-----------------|
|-4-4-4-4-4-4-4-4-|-4-4-4-4-4-4-4-4-|
|-----------------|-----------------|
 P.M. . . . . . . . . . . . . . . . 



Gtr.II (P.M. at 3rd string)
|-7-----4-----7-5-|-----------------|
|-----------------|---7---5-5-5-----|
|---6-6---6-6-----|-6---6-------4-6-|
|-----------------|-----------------|
|-----------------|-----------------|
|-----------------|-----------------|
|
Gtr.I
|-----------------|-----------------|
|-----------------|-----------------|
|-----------------|-----------------|
|-----------------|-----------------|
|-4-4-4-4-4-4-4-4-|-4-4-4-4-4-4-4-4-|
|-----------------|-----------------|
 P.M. . . . . . . . . . . . . . . . .


                           (end of Riff1)
|-7-----4---------|-----------------|
|-------------7-5-|---7-7-5-5-5-----|
|---6-6---6-6-6-6-|-6-6-6-6-6-6-4-6-|
|-----------------|-----------------|
|-----------------|-----------------|
|-----------------|-----------------|
|
|-----------------|-----------------|
|-----------------|-----------------|
|-----------------|-----------------|
|-----------------|-----------------|
|-4-4-4-4-4-4-4-4-|-X\------X\------|
|-----------------|-----------------|
 . . . . . . . .



Gtr.I
|--------------|----------------|--------------|
|--------------|----------------|--------------|
|--------------|----------------|--------------|
|--------------|----------------|--------------|
|-4---2-----4--|--2-----2h4-2---|-4---2-----4--|
|---------4----|-----4--------4-|---------4----|



Gtr.I
|----------------|
|----------------|
|----------------|
|----------------|
|--2-----2h4-2---|
|-----4--------4-|
|
Gtr.II
|----------------|
|----------------|
|-------/6\------|
|----------------|
|----------------|
|----------------|



Riffs2&2A
Gtrs.I&II
|--------------|----------------|
|--------------|----------------|
|-6---4-----6--|--4-----4h6-4---|
|---------6----|-----6--------6-|
|-4---2-----4--|--2-----2h4-2---|
|---------4----|-----4--------4-|

                       (end of Riffs2&2A)
                       (play 4 times)
|--------------|----------------|
|--------------|----------------|
|-6---4-----6--|--4-----4h6-4---|
|---------6----|-----6--------6-|
|-4---2-----4--|--2-----2h4-2---|
|---------4----|-----4--------4-|



Gtrs.I&II            (drum fill)
|--------------|-----------------|
|--------------|-----------------|
|-6---4-----6--|-----------------|
|---------6----|-----------------|
|-4---2-----4--|-----------------|
|---------4----|-----------------|




Riff3
(P.M. on 5th string)
|-----------------|-----------------|
|-----------------|-----------------|
|-6-----4-----6---|---4-----4h5-5-4-|
|-6-----4-----6---|---4-----4---4-4-|
|---4-4---4-4---4-|-4---4-4---------|
|-----------------|-----------------|

                          (end of Riff3)
-----------------|-----------------|
-----------------|-----------------|
-6-----4-----6---|---4-----4h5-5-4-|
-6-----4-----6---|---4-----4---4-4-|
---4-4---4-4---4-|-4---4-4---------|
-----------------|-----------------|



7th & 8th verses:
You knew at first sight   You'd enjoy my attack 
So come in my arms        I strike any hour     
|------------------------|---------------------|
|------------------------|---------------------|
|o--6-------4-------6----|----4-------4h5-5--4-|
|o--6-------4-------6----|----4-------4---4--4-|
|------4-4-----4-4-----4-|-4-----4-4-----------|
|------------------------|---------------------|

That with my first bite There'd be no turning back
I will return           To trap and devour
|----------------------|-------------------------|
|----------------------|-------------------------|
|-4-------2-------4----|----2--------4h5--5--4--o|
|-4-------2-------4----|----2--------4----4--4--o|
|----2-2-----2-2-----2-|-2-----2--2--------------|
|----------------------|-------------------------|



Chorus:
  In the dead of night        Love bites    Love bites
|----------------------|---------|-------------|-------------|
|----------------------|---------|-------------|-------------|
|----------------------|---------|-------------|-------------|
|-9--8---6----4--2-----|------4--|-6--------9--|-6-----------|
|-7--6---4----2--0-----|------2--|-4--------7--|-4-----------|
|----------------------|---------|-------------|-------------|

  In the dead of night        Love bites
|----------------------|---------|----------|------------|
|----------------------|---------|------9\--|--7-7-7/9\--|
|----------------------|---------|------6\--|--4-4-4/6\--|
|-9--8---6----4--2-----|------4--|-6--------|------------|
|-7--6---4----2--0-----|------2--|-4--------|------------|
|----------------------|---------|----------|------------|

  In the dead of night        Love bites    Love bites
|----------------------|---------|-------------|-------------|
|----------------------|---------|-------------|-------------|
|----------------------|---------|-------------|-------------|
|-9--8---6----4--2-----|------4--|-6--------9--|-6-----------|
|-7--6---4----2--0-----|------2--|-4--------7--|-4-----------|
|----------------------|---------|-------------|-------------|

In the dead of night        Love bites
|----------------------|---------|-----------|------------|
|----------------------|---------|-----------|------------|
|----------------------|---------|-----------|------------|
|-9--8---6----4--2-----|------4--|-----------|------------|
|-7--6---4----2--0-----|------2--|-6---------|-6\---------|
|----------------------|---------|-4---------|-4\---------|

Riff3 (10 times). 
Riffs2&2A (12 times).

Any questions and suggestions are welcome.

Rokas Velyvis
rokasv@usa.net

comments
print report bad tab
I want to post or [tab]
guest
You may want to rate the tab now too:
select rating
Please do not post tabs as comments. Select "correction" instead!