Oops, an error
Loading. Please wait.

Love Zone Tab

version 1
version 1

Whole song

Interactive

724 views 1 this week
no commentswrite comment
1 2 3 4 5
please rate
add to favorites
launch autoscroll
font size
0
reset
how to read this tab
guitar tuner
Autoscroll
slow
fast
+/-
esc
set tempo
stop
Help us to improve Ultimate-Guitar.com Take our survey!
×
Contributor
Difficulty
novice
Love Zone - Judas Priest
From Ram It Down


Tabbed by Anton.ironmaiden666666@ya.ru


E||--------------------|----------------------|----------------------|-----------------------|
B||------3-------------|----------------------|--------3-------------|-----------------------|
G||------2--------2----|----------------------|--------2--------2----|-----------------------|
D||------0--------2----|--------2--2--2--2----|--2--2--0--------2----|--------2--2--2--2--2--|
A||---------------0----|--------2--2--2--2----|--2--2-----------0----|--------2--2--2--2--2--|
E||--------------------|--------0--0--0--0----|--0--0----------------|--------0--0--0--0--0--|


                                                                            1/4      1/4
----------------------|-----------------------|----------------------|-----------------------|
--------3-------------|-----------------------|--------3-------------|-----------------------|
--------2--------2----|-----------------------|--------2--------2----|-----------------------|
--------0--------2----|--------2--2--2--2--2--|--------0--------2----|-----------------------|
--2--2-----------0----|--------2--2--2--2--2--|--2--2-----------0----|----2-------2-------2--|
--0--0----------------|--------0--0--0--0--0--|--0--0----------------|-------3b------5b------|


 1/4      1/4     1/4            Verse
------------------------------|--------------------------|--------------------------|
------------------------------|--------------------------|--------------------------|
------------------------------|--------------------------|--------------------------|
------------------------------|--------------------------|--0--2--------0--2--------|
--3b---2-------2-----2-----2--|--2--2--2--2--2--2--2--2--|--------2--2--------2--2--|
----------5b------3b----5-----|--0--0--0--0--0--0--0--0--|--------0--0--------0--0--|


--------------------------|------------------------|-------------------------|
--------------------------|------------------------|-------------------------|
--------------------------|-----------9----9----9--|--9----------------------|
--------------5-----------|-----------9----9----9--|--9----------------------|
-----------------7--5--7--|--2--2--2--7----7----7--|--7----2--2--5--2--2--2--|
--0--5--6--7--------------|--0--0--0---------------|-------0--0-----0--0--0--|


--------------------------|--------------------------|-----------------------|
--------------------------|--------------------------|-----------------------|
--------------------------|--------------------------|-----------9----9------|
--------------------------|--------------5-----------|-----------9----9------|
--5--2--2--2--5--2--2--2--|-----------------7--5--7--|-----------7----7------|
-----0--0--0-----0--0--0--|--0--5--6--7--------------|--0--0--0--------------|


--------------------------|--------------------------|--------------------------|
--------------------------|--------------------------|--------------------------|
--------------------------|--------------------------|--------------------------|
--------------------------|--------------------------|--------------5-----------|
--5--2--2--2--5--2--2--2--|--5--2--2--2--5--2--2--2--|-----------------7--5--7--|
-----0--0--0-----0--0--0--|-----0--0--0-----0--0--0--|--0--5--6--7--------------|


------------------------|-------------------------|--------------------------|
------------------------|-------------------------|--------------------------|
-----------9----9----9--|--9----------------------|--------------------------|
-----------9----9----9--|--9----------------------|--------------------------|
--2--2--2--7----7----7--|--7----2--2--5--2--2--2--|--5--2--2--2--5--2--2--2--|
--0--0--0---------------|-------0--0-----0--0--0--|-----0--0--0-----0--0--0--|


--------------------------|------------------------|-------------------|----------------------|
--------------------------|------------------------|-------------------|----------------------|
--------------------------|-----------9----9-------|--7----------------|----9--------9--------|
--------------5-----------|-----------9----9-------|--7----------------|----9--------9--------|
-----------------7--5--7--|--2--2--2--7----7----0--|--5----------------|----7--------7--------|
--0--5--6--7--------------|--0--0--0---------------|-------------------|-------0--0-----------|


-------------------|----------------------|-------------------|---------------------|
-------------------|----------------------|-------------------|---------------------|
--7----------------|-------------9--------|--7----------------|------------9--------|
--7----------------|-------------9--------|--7----------------|------------9--------|
--5----------------|----2--2--2--7--------|--5----------------|----2----2--7--------|
-------------------|----0--0--0-----------|-------------------|----0----0-----------|


--------------------|-------------------|--------------------|-----------------------|
--------------------|-------------------|--3-----------------|-----------------------|
--5--------------4--|----------4--------|--2--------2--------|-----------------------|
--5--------------4--|----------4--------|--0--------2--------|----2----2--2----2--2--|
--3--------------2--|----------2--------|-----------0--------|----2----2--2----2--2--|
--------------------|-------------------|--------------------|----0----0--0----0--0--|


--------------------|-------------------------|--------------------|-----------------------|
--3-----------------|-------------------------|--3-----------------|-----------------------|
--2--------2--------|-------------------------|--2--------2--------|-----------------------|
--0--------2--------|----2--2--2--2--2--2--2--|--0--------2--------|----2----2--2----2--2--|
-----------0--------|----2--2--2--2--2--2--2--|-----------0--------|----2----2--2----2--2--|
--------------------|----0--0--0--0--0--0--0--|--------------------|----0----0--0----0--0--|

                                                                 1/4
--------------------|--------------------------|------------------------|------------------------|
--3-----------------|--------------------------|------------------------|------------------------|
--2--------2--------|--------------------------|------------------------|------------------------|
--0--------2--------|--------------------------|------------------------|------------------------|
-----------0--------|-----2h-4p-2--5p-4p-2-----|-----5p-4p-2h-4---------|-----2h-4p-2--5p-4p-2---|
--------------------|--0--------------------0--|--0--------------3b-----|--0--------------------0|


 1/4      1/4     1/4                                              1/4
------------------------|--------------------------|-----------------------|
------------------------|--------------------------|-----------------------|
------------------------|--------------------------|-----------------------|
------------------------|--------------------------|-----------------------|
-------2-------2-----2--|-----2h-4p-2--5p-4p-2-----|----5p-4p-2h-4---------|
--3b------5b------6b----|--0--------------------0--|----------------3b-----|


                             1/4     1/4     1/4            Back to verse
--------------------------|------------------------||
--------------------------|------------------------||
--------------------------|------------------------||
--------------------------|------------------------||
-----2h-4p-2--5p-4p-2-----|-------2-------2-----2--||
--0--------------------0--|--3b------5b------6b----||
comments
We did not receive enough feedback on this tab! Please rate:
print report bad tab
1 2 3 4 5
I want to post or [tab]
guest
You may want to rate the tab now too:
select rating
Please do not post tabs as comments. Select "correction" instead!