Oops, an error
Loading. Please wait.

March Of The Damned Tab

version 1
version 1

Whole song

Interactive

4,624 views 3 this week
2 commentsread comments
1 2 3 4 5
accurate
x 6
add to favorites
launch autoscroll
font size
0
reset
how to read this tab
guitar tuner
Autoscroll
slow
fast
+/-
esc
set tempo
stop
Help us to improve Ultimate-Guitar.com Take our survey!
×
Author
Difficulty
intermediate
March of the Damned
Written by Rob Halford, Glenn Tipton, Richie Faulkner
Album Redeemer of Souls (2014)

IF you would like to change something in my tab just comment below. Thanks for viewing.
Matt

Intro and Verse
E|----------------------------
B|----------------------------
G|------2---------------2-----
D|--4---2--4---4---4----2-----
A|--4---0--4---4---4----0-----
E|--0h2----0h2-0h2-0h2--------


Cant stop us
E|-------------------------
B|-------------------------
G|-2--4---2----2-4-6-------
D|-2--4-4-2-2--2-4-6-------
A|-0--2-4-0-2--0-2-4-------
E|------2---0---------12/--

Chorus
E|--------------------------------------------------------------------------------------------------
B|--------------------------------------------------------------------------------------------------
G|--------------------------------------------------------------------------------------------------
D|-44-------------------------------44-----------2-5--44------------------------------44------------
A|-44---5-4-2----4-2-------5-4------44--5-4-2----2-5--44--5-4-2----4-2------5-4-------44--5-4-2-----
E|-22---------5-------5-4------4-2--22--------5--0-3--22--------5------5-4------4-2---22--------5~--


E|----------------------------
B|----------------------------
G|------2---------------2-----
D|--4---2--4---4---4----2-----
A|--4---0--4---4---4----0-----
E|--0h2----0h2-0h2-0h2-------- x8 roughly

Cant rake us
E|-------------------------
B|-------------------------
G|-2--4---2----2-4-6-------
D|-2--4-4-2-2--2-4-6-------
A|-0--2-4-0-2--0-2-4-------
E|------2---0---------12/--


Chorus
E|--------------------------------------------------------------------------------------------------
B|--------------------------------------------------------------------------------------------------
G|--------------------------------------------------------------------------------------------------
D|-44-------------------------------44-----------2-5--44------------------------------44------------
A|-44---5-4-2----4-2-------5-4------44--5-4-2----2-5--44--5-4-2----4-2------5-4-------44--5-4-2-----
E|-22---------5-------5-4------4-2--22--------5--0-3--22--------5------5-4------4-2---22--------5~--


Start of the solo
E|--------------------
B|--------------------
G|-4---5/4------5-2---
D|-4---5/4------5-2---
A|-0h2-3/2--x3--3-0---
E|-------------------- x4

You will have to figure out your strumming pattern your self. Just listen to the track and you will 
figure it out!
1, 2, 3 4
1, 2, 3 4
D, D, D U

E|--------------------------------------------------------
B|--------------------------------------------------------
G|---------------------------------2-4----------2-4-------
D|--4------------------------------2-4----4-----2-4-4-----
A|--4------------2-4-2---2-4-2-----0-2----4-----0-2-4-----
E|--2------------------5-------0----------2---------2-----


Cant stop us
E|-------------------------
B|-------------------------
G|-2--4---2----2-4-6-------
D|-2--4-4-2-2--2-4-6-------
A|-0--2-4-0-2--0-2-4-------
E|------2---0---------12/--

Outro

E|--------------------------------------------------------------------------------------------------
B|--------------------------------------------------------------------------------------------------
G|--------------------------------------------------------------------------------------------------
D|-44-------------------------------44-----------2-5--44------------------------------44------------
A|-44---5-4-2----4-2-------5-4------44--5-4-2----2-5--44--5-4-2----4-2------5-4-------44--5-4-2-----
E|-22---------5-------5-4------4-2--22--------5--0-3--22--------5------5-4------4-2---22--------5~-- x 2


E|----------------------------
B|----------------------------
G|------2---------------2-----
D|--4---2--4---4---4----2-----
A|--4---0--4---4---4----0-----
E|--0h2----0h2-0h2-0h2--------


Suggest correction
comments
print report bad tab
2 comments total.
0 reply
Beggiz 76 wrote on July 1 2014, 12:21 pm

Clearly wrong.

0 reply
redaxe141 10 wrote on May 15 2015, 04:17 pm

As in the cant stop us bit is a d

guest
You may want to rate the tab now too:
select rating
Wanna post a correction for this tab? Suggest correction