Oops, an error
Loading. Please wait.

Metal Meltdown Bass Tab

version 1
version 1

Whole song

Interactive

1,861 views 3 this week
no commentswrite comment
1 2 3 4 5
please rate
add to favorites
launch autoscroll
font size
0
reset
guitar tuner
Autoscroll
slow
fast
+/-
esc
set tempo
stop
Help us to improve Ultimate-Guitar.com Take our survey!
×
Author
Difficulty
intermediate
----------------------------------------------------------------------------
			     Metal Meltdown - Judas Priest
----------------------------------------------------------------------------

Tabbed By : Lethalspartan
e-mail: leemanpace@bellsouth.net

Tuning: Standard

| /  slide up
| \  slide down
| h  hammer-on
| p  pull-off
| ~  vibrato
| +  harmonic
| x  Mute note
============================================================================

Intro (x2) 
G|------------------------------------------------------|
D|------------------------------------------------------|
A|------------------------------------------------------|
E|-3/5-5-5-5-5-5-5-5-6-5-5-5-5-5-5-5-6-5-5-5-5-3-3/5-5--|
       

   
G|------------------------------------------------------|
D|------------------------------------------------------|
A|------------------------------------------------------|
E|-3/5-5-5-5-5-5-5-5-6-5-5-5-5-5-5-5-8---7---6~---------|
            


Verse                                    (x4)

G|----------------------------|-----------------------------|
D|----------------------------------------------------------|
A|-2222222222222222-2-2-3\2-2-|-2222222222222222-2--------5-|
E|----------------------------|---------------------2--5----|
  


Pre-chorus
G|-----------------------------------|
D|-----------------------------------|
A|-4---4---4---4---|-7---7---7---7---|
E|-----------------|-----------------|


              
Out of control, about to explode

G|-------------------|
D|-------------------|
A|---10----8---7---3-|
E|-------------------|
It's co - min' at ya


Chorus

G|------------------------------|----------------------------|
D|------------------------------|----------------------------|
A|--------------------7--6---3--|--------------------7--6----|
E|--5----5-----3---5------------|--5----5---0----3-----------|
    Here comes the metal meltdown  Run  for your lives
    Can't stop the metal meltdown  No   one survives

Verse
Pre-chorus
Chorus

Bridge

G|-------------------------------------------|
D|-------------------------------------------|
A|-444444444444444444444444444444-4--5--7--5-|
E|-------------------------------------------|
   Temperature is boiling...


G|-----------------------------------------|---|----------------------------|
D|-----------------------------------------|---|----------------------------|
A|44444444444444444444444444444-4--5--7--5-|---|----------------------------|
E|-----------------------------------------|-2-|-1--321321321321321321321-1-|


Solo backing

G|------------------------------------------------------|
D|------------------------------------------------------|
A|------------------------------------------------------|
E|-3/5-5-5-5-5-5-5-5-6-5-5-5-5-5-5-5-6-5-5-5-5-3-3/5-5--|
      
                                                    (x2)
G|------------------------------------------------------|
D|------------------------------------------------------|
A|------------------------------------7-----6-----3-----|
E|-3/5-5-5-5-5-5-5-5-6-5-5-5-5-5-5-5--------------------|
      


G|------------------------------------------------------|
D|------------------------------------------------------|
A|------------------------------------------------------|
E|-5/7-7-7-7-7-7-7-7-8-7-7-7-7-7-7-7-8-7-7-7-7-5-5/7-7--|
      
                                                    (x2)
G|------------------------------------------------------|
D|------------------------------------------------------|
A|------------------------------------9-----8-----5-----|
E|-5/7-7-7-7-7-7-7-7-8-7-7-7-7-7-7-7--------------------|
       

G|--------------|
D|--------------|
A|----------5---|
E|-2----5-------|


Chorus riff (x6)
then

Coda
G|------------------------------------------------------|
D|------------------------------------------------------|
A|------------------------------------------------------|
E|-5/7-7-7-7-7-7-7-7-7-7-7-7-7-7-7-7-7-7-7-7-7-5-5/7-7--|
  
                                                    (x4)
G|------------------------------------------------------|
D|------------------------------------------------------|
A|------------------------------------------------------|
E|-5/7-7-7-7-7-7-7-7-7-7-7-7-7-7-7-7-10-----9-----8~----|
Suggest correction
Give kudos to tab author, rate the tab!
1 2 3 4 5
comments
print report bad tab
guest
You may want to rate the tab now too:
select rating
Please do not post tabs as comments. Select "correction" instead!