Oops, an error
Loading. Please wait.

Monsters Of Rock Tab

version 1
version 1

Whole song

Interactive

1,441 views 3 this week
no commentswrite comment
1 2 3 4 5
please rate
add to favorites
launch autoscroll
font size
0
reset
how to read this tab
guitar tuner
Autoscroll
slow
fast
+/-
esc
set tempo
stop
Help us to improve Ultimate-Guitar.com Take our survey!
×
Author
Difficulty
intermediate
Monsters of Rock
by Judas Priest
from the album Ram It Down

Intro (main): 2 times

e|----------------------|-----------------------------|-----------------------------|
b|----------------------|-----------------------------|-----------------------------|
g|----------------------|-----------------------------|-----------------------------|  vol swell
d|----------------------|------9-(9)\------9--11--12--|-------9-(9)\------12-11-9\7-|
a|----------------2-----|-2----7-(7)\-2----7--9---10--|--2----7-(7)\-2----10-9--7\5-|
e|----------------0-----|-0---------\-0---------------|--0---------\-0--------------|




e|----------------------|-----------------------------|
b|----------------------|-----------------------------|
g|----------------------|-----------------------------|
d|-7 \ 4----4-4-5-4-2-5-|----5-5-5-4-2-2---2-2--------|
a|-5 \ 2----2-2-2-2-2-3-|----3-3-3-3-3-0---0-0-0------|
e|----------------------|------------------------3-2~~|



end of intro 2nd time


e|----------------------|-----------------------------|
b|----------------------|-----------------------------|
g|----------------------|-----------------------------|
d|----------------------|-----------------------------|
a|-2--------------------|-2---------------------------|
e|-0--------------------|-0---------------------------|

Verse
it started..     of the blk country     the  seed became..  all on earth to see    like


e|-------------|---------------------------|--------------|----------------------------|
b|-------------|---------------------------|--------------|----------------------------|
g|-------------|---------------------------|--------------|----------------------------|
d|-------------|----------------2----------|--------------|-----------------4--4-4-5-4-|
a|-2-----------|-3--------------0--0-0-----|-2------------|-3---------------2--2-2-3-2-|
e|-0-----------|-0---------------------3-2-|-0------------|-0--------------------------|

   stealth,      corners of..land       and  soon           get..  ..out of hand
e|-------------|---------------------------|--------------|----------------------------|
b|-------------|---------------------------|--------------|----------------------------|
g|-------------|---------------------------|--------------|----------------------------|
d|-------------|----------------2----------|--------------|-----------------4--4-4-5-4-|
a|-2-----------|-3--------------0--0-0-----|-2------------|-3---------------2--2-2-3-2-|
e|-0-----------|-0---------------------3-2-|-0------------|-0--------------------------|

Pre-Chorus:
   from the concrete    jungle      the  smoke...dirt  the grime         could
e|-------------------------------------|--------------------------------------|
b|-------------------------------------|--------------------------------------|
g|-------------------------------------|--------------------------------------|
d|-5-----------4-----------------------|-5----------4----------4/5\4---9------|
a|-3-----------2-----------2-----------|-3----------2----------2/3\2---7------|
e|-------------------------0-----0-2-3-|-----------------------------0--------|

   not      contain the hunger       it  grew and  grew in time         into a 
e|-------------------------------------|--------------------------------------|
b|-------------------------------------|--------------------------------------|
g|-------------------------------------|--------------------------------------|
d|-5-----------4-----------------------|-----------4---4---4------------------|
a|-3-----------2-----------2-----------|-------0---2---2---2------------------|
e|-------------------------0-----0-2-3-|-2--3---------------------------------|

Chorus: Just play the  main intro once and listen to the song.

Repeat Verse
Repeat Pre-chorus
Repeat Chorus

Riff 1 cool part behind solos 
10 times
e|----------------------------|
b|----------------------------|
g|----------------------------|
d|----2-----------------------|
a|-2---2-3~~~0-2-3---0-0------|
e|-0----------------------3-2-|

Pre-chorus

Chorus:
  monster             monster of rock    they could never bind it, it vowed
e|-------------------|------------------|
b|-------------------|------------------|
g|-------------------|------------------|
d|-------------------|------------------|
a|-------------------|------------------|
e|-------------------|------------------|

   to reach the top  ooh
e|----------------------------|
b|----------------------------|
g|----------------------------|
d|----------------------------|
a|-----------------------2----|
e|-----------------------0----|
                         vol swell

Play Chorus (Main intro) 3 times

Structure of song
Intro 2x
Verse
Pre-chorus
Chorus (Main Intro)
Verse
Pre-chorus
Chorus
Riff 1 10 times
Pre-chorus
Chorus (no guitar for 4 measures)
Chorus 3 times

Suggest correction
Give kudos to tab author, rate the tab!
1 2 3 4 5
comments
print report bad tab
guest
You may want to rate the tab now too:
select rating
Please do not post tabs as comments. Select "correction" instead!