Oops, an error
Loading. Please wait.

Mother Sun Tab

401 views 1 this week
no commentswrite comment
1 2 3 4 5
please rate
add to favorites
launch autoscroll
font size
0
reset
how to read this tab
guitar tuner
Autoscroll
slow
fast
+/-
esc
set tempo
stop
Help us to improve Ultimate-Guitar.com Take our survey!
×
-------------------------------------------------------------------------------
                             Judas Priest - Mother Sun (Intro)
                            Written by Rob Halford & Glenn Tipton
-------------------------------------------------------------------------------
Tabbed by: Jon Malmin
Email: jogusmal@hotmail.com

Tuning: eBGDAE

This is a rare Priest song that was never officially released, but a  live bootleg mp3 
be heard at the Judas Priest Shrine, www.judas-priest.com
The quality of it isn't the best, so therefore I couldn't tab out the whole song, but I 
the intro down at least.
I'm supposing KK is playing the higher notes, since he is usually to the left and Glenn 
the right. The tab might not be 100% correct, but it sounds fine and I think it's very 
Have fun!


KK:
e|-12---10-8-10--7--8~~~~-----12---13-10-12~~~~-----12---10-8-10--7--8~~~~---|
B|---------------------------------------------------------------------------|
G|---------------------------------------------------------------------------|
D|---------------------------------------------------------------------------|
A|---------------------------------------------------------------------------|
E|---------------------------------------------------------------------------|

e|-12---13-12-16~~~-----20---19-17-15-17------------15b17---15-13-12-13------|
B|----------------------------------------17~~~----------------------- 15~~--|
G|---------------------------------------------------------------------------|
D|---------------------------------------------------------------------------|
A|---------------------------------------------------------------------------|
E|---------------------------------------------------------------------------|

e|-12---10-8-10-7-----12--8---10-7-8\----------------------------------------|
B|-----------------9---------------------------------------------------------|
G|---------------------------------------2--1--2~~~--------------------------|
D|---------------------------------------------------------------------------|
A|---------------------------------------------------------------------------|
E|---------------------------------------------------------------------------|

Glenn:
e|---------------------------------10----------------------------------------|
B|-13---12-10-12--9--10~~~-----13-----12-10~~~-----13---12-10-12--9--10~~~---|
G|---------------------------------------------------------------------------|
D|---------------------------------------------------------------------------|
A|---------------------------------------------------------------------------|
E|---------------------------------------------------------------------------|

e|-----10----12~~~-----17---15-12----12---------12b13---12-10-8-10-7~~~------|
B|-13-----13----------------------15----10~~~--------------------------------|
G|---------------------------------------------------------------------------|
D|---------------------------------------------------------------------------|
A|---------------------------------------------------------------------------|
E|---------------------------------------------------------------------------|

e|---------------------------------------------------------------------------|
B|-13---12-10-12-9----13---10---12-9-10\-------------------------------------|
G|-----------------9---------------------------------------------------------|
D|---------------------------------------------------------------------------|
A|---------------------------------------------------------------------------|
E|-----------------------------------------5-4-5~~~--------------------------|

| /  slide up
| \  slide down
| h  hammer-on
| p  pull-off
| ~  vibrato
| +  harmonic
| x  Mute note
===============================================================================
Suggest correction
Give kudos to tab author, rate the tab!
1 2 3 4 5
comments
print report bad tab
guest
You may want to rate the tab now too:
select rating
Wanna post a correction for this tab? Suggest correction