Oops, an error
Loading. Please wait.

Never Forget solo tab

version 1
version 1

Solo

Whole song

489 views 1 this week
2 commentsread comments
1 2 3 4 5
x 4
add to favorites
×
Save as Personal and add changes to this tab that will be seen only by you. Learn more ›
×
You can save this tab as Personal to edit and correct it or add notes. All changes will be seen only by you. Learn more »
launch autoscroll
font size
0
reset
how to read this tab
guitar tuner
edit
Autoscroll
slow
fast
+/-
esc
set tempo
stop
Author
Difficulty
---------------------------------------------------------------------------------------------------------------
                                          Artist - Judas Priest
                                         ***********************
                                           Song - Never Forget
                                          *********************
                                     Album - Redeemer of Souls (2014)   
                                    **********************************
                                           Tabbed By - Ayreon77
                                          *********************
---------------------------------------------------------------------------------------------------------------
Tuning = Standard

                 DON CZARSKI did A great chord tab for this song, This is the solos.
                 http://tabs.ultimate-guitar.com/j/judas_priest/never_forget_crd.htm

INTRO SOLO
***********
e|-------|----------|----------|--h----------|-------|-------7------|----------|--h----------|
B|----10-|-10-8-7---|-7-8-7----|-7-8-8-7-----|----10-|-10-10---7-10-|-7-8-7----|-7-8-8-7-----|
G|-7-----|--------9-|--------7-|---------9-7-|-7-----|--------------|--------7-|---------9-7-|
D|-------|----------|----------|-------------|-------|--------------|----------|-------------|
A|-------|----------|----------|-------------|-------|--------------|----------|-------------|
E|-------|----------|----------|-------------|-------|--------------|----------|-------------|


e|---------------|--h-----------|
B|---7-8-7-------|-7-8-8-7------|
G|-9-------9-7---|---------9--7-|
D|-------------9-|--------------|
A|---------------|--------------|
E|---------------|--------------|



----------------------------------
03:34
MAIN SOLO                                                       ??????????????
**********                                              --------Extremely Fast-------      b     s
e|--b------b---r-------------s-|----------|-s----------|----------------------7-9-10-|-10-12--12-\-|
B|-12~~~~-12~~~~-10-12----10-\-|-8-7----s-|-\7-8-7---s-|---------------7-8-10--------|-------------|
G|---------------------11------|-----9~~\-|---------7\-|-----------7-9---------------|-------------|
D|-----------------------------|----------|------------|----7-9-10-------------------|-------------|
A|-----------------------------|----------|------------|-10--------------------------|-------------|
E|-----------------------------|----------|------------|-----------------------------|-------------|

03:49             s   s              s                 04:01
e|-15~~~-14-12-14-\-|-\17-17-19-21-22\-|--------------|--b-r----s-|------------17-15-14--------s-----|
B|------------------|------------------|-This part----|-22---22-\-|-15~~-15-15-----------15~~~~\-----|
G|------------------|------------------|--I can't Get-|-----------|--------------------------------7-|
D|------------------|------------------|---So Sorry---|-----------|----------------------------------|
A|------------------|------------------|--------------|-----------|----------------------------------|
E|------------------|------------------|--------------|-----------|----------------------------------|



----------------------------------
05:27
OUTRO
******
  GUITAR 1
e|----13-|-13-13-11-10-------|-10-11-10~~----|-10-11-10---------|
B|-11----|-------------13~~~-|------------11-|----------13-11~~-|
G|-------|-------------------|---------------|------------------|
D|-------|-------------------|---------------|------------------|
A|-------|-------------------|---------------|------------------|
E|-------|-------------------|---------------|------------------|X2


 05:53
   GUITAR 1
e|--------------------|----13-|-13-13-11-10-------|-10-11-10~~----|-10-11-10--------------------|
B|--------------------|-11----|-------------13~~~-|------------11-|----------13-11~~------------|
G|--------------------|-------|-------------------|---------------|-----------------------------|
D|--------------------|-------|-------------------|---------------|-----------------------------|
A|--------------------|-------|-------------------|---------------|-----------------------------|
E|--------------------|-------|-------------------|---------------|-----------------------------|
 |                                                                                              |
 |GUITAR 2                                                                                      |
e|--------------------|--------------------s------|---------------|-10----13--13-13-13-13-15-13-|
B|--------------------|-------------11-10--\--6---|-6--7--8-------|----11-----------------------|
G|-10------10------10-|-10-10-10------------------|------------7--|-----------------------------|
D|----8-10----8-10----|-10-10-10------------------|---------------|-----------------------------|
A|--------------------|-8--8--8-------------------|---------------|-----------------------------|
E|--------------------|---------------------------|---------------|-----------------------------|



  GUITAR 1             fade out.................................
e|----13-|-13-13-11-10-------|-10-11-10~~----|-10-11-10---------|
B|-11----|-------------13~~~-|------------11-|----------13-11~~-|
G|-------|-------------------|---------------|------------------|
D|-------|-------------------|---------------|------------------|
A|-------|-------------------|---------------|------------------|
E|-------|-------------------|---------------|------------------|
 |                                                              |
 |GUITAR 2             fade out.................................|
e|-------|--------------------|--------------|------------------|
B|-------|-11-11-11--11-10--6-|-6--7--8------|------------------|
G|---10--|--------------------|------------7-|------------------|
D|-8-----|--------------------|--------------|------------------|
A|-------|--------------------|--------------|------------------|
E|-------|--------------------|--------------|------------------|



ENJOY............
Suggest correction
Creating personal tab
Creating personal tab
You can edit any tab online and save it as your Personal.

You can edit, replace or remove any tab part or add personal notes – all changes will be seen only by you.

Personal tabs can be accessed anytime from any device, even offline.
Learn more »
comments
print report bad tab
2 comments total.
0 reply
DON CZARSKI [tm] 27,892 Jul 15, 2015 01:36 PM

Excellent solo tab as always.... Great work... Always a 5 star tab.

0 reply
ayreon77 21,833 Jul 15, 2015 03:40 PM

yea thx don yours too. always great work from you as always.

guest
You may want to rate the tab now too:
select rating
Wanna post a correction for this tab? Suggest correction