Oops, an error
Loading. Please wait.

Never Satisfied bass

version 1
version 1

Whole song

Interactive

375 views 1 this week
no commentswrite comment
1 2 3 4 5
3 more votes to show rating
add to favorites
×
Save as Personal and add changes to this tab that will be seen only by you. Learn more ›
×
You can save this tab as Personal to edit and correct it or add notes. All changes will be seen only by you. Learn more »
launch autoscroll
font size
0
reset
guitar tuner
edit
Autoscroll
slow
fast
+/-
esc
set tempo
stop
Author
Difficulty
Band: Judas Priest 
Song: Never Satisfied
Album: Rocka Rolla (1974)
Bassist: Ian Hill


Standard Tuning (E A D G)

Intro
G -----------------------------------------------------------| 
D -----------------------------------------------------------| 
A -----------------------------------------------------------| 
E --5----5----5----5/17-17-17-17-17-17-17-17-17-17-17-17-17--|

Verse                    x8                        x2
G --------------5-5-------|-------------3-3--------|
D ----------7-7-----7-5-7-|---------5-5-----5-3-5--|
A ------------------------|------------------------|
E --5-5-5-5---------------|-3-3-3-3----------------|
then
                         x6                        x2
G --------------5-5-------|-------------3-3--------|
D ----------7-7-----7-5-7-|---------5-5-----5-3-5--|
A ------------------------|------------------------|
E --5-5-5-5---------------|-3-3-3-3----------------|
then
G --------------5-5-------|
D ----------7-7-----7-5-7-|
A ------------------------| x2
E --5-5-5-5---------------|

Refrain           x3
G -----------------|-----------|
D ----------6------|-----------|
A ------6-8---8----|-6-8--6-8--| 
E --6-8---------6--|-----------|

Repeat Refrain

Verse 2
G --------------5-5-------|-------------3-3--------|
D ----------7-7-----7-5-7-|---------5-5-----5-3-5--|
A ------------------------|------------------------|
E --5-5-5-5---------------|-3-3-3-3----------------|
then
G --------------5-5-------|
D ----------7-7-----7-5-7-|
A ------------------------| x2
E --5-5-5-5---------------|

Break down
G ---------------| 
D ---------------|
A ---------------| 
E --5----3----0--|

Rest until 2.12

Solo                              x14
G ---------------------------------|----------|
D ---------------------------------|----------|
A ----------2----------------------|----------| 
E --0-3-4-5---3-0-0--0-0-0--0-0-3--|-0-3-4-5--|
then
G ------------------------------------------------------| 
D ------------------------------------------------------| 
A ------------------------------------------------------| 
E --5----5----5/17-17-17-17-17-17-17-17-17-17-17-17-17--|

Verse 2

Refrain

Ending (slow down until "We are never satisfied")
G --------------5-5-------|
D ----------7-7-----7-5-7-|
A ------------------------| x2
E --5-5-5-5---------------|
then
G -----| 
D -----|
A -----| 
E --5--|

            
            
Suggest correction
Creating personal tab
Creating personal tab
You can edit any tab online and save it as your Personal.

You can edit, replace or remove any tab part or add personal notes – all changes will be seen only by you.

Personal tabs can be accessed anytime from any device, even offline.
Learn more »
Give kudos to tab author, rate the tab!
1 2 3 4 5
comments
print report bad tab
guest
You may want to rate the tab now too:
select rating
Wanna post a correction for this tab? Suggest correction