Oops, an error
Loading. Please wait.

Nightcrawler Bass Tab

version 1
version 1

Whole song

Interactive

4,529 views 1 this week
no commentswrite comment
1 2 3 4 5
x 3
add to favorites
launch autoscroll
font size
0
reset
guitar tuner
Autoscroll
slow
fast
+/-
esc
set tempo
stop
Help us to improve Ultimate-Guitar.com Take our survey!
×
Intro                                                                            
G|-------------------------|------------------------|------------------------|
D|*--2----------------3----|--2----------------0----|--2---------------------|
A|*------------------------|------------------------|-------------2----------|
E|--------0--0--0--0-------|-------0--0--0--0-------|-------0--0-------0--0--|
 
G|-------------------------|------------------------|------------------------|
D|-------------------------|--2----------------3----|--2----------------0----|
A|--5----------------------|------------------------|------------------------|
E|-------0--0--0--0--0--0--|-------0--0--0--0-------|-------0--0--0--0-------|

G|------------------------|--------2----------2----|
D|--2---------------------|------------------------|
A|-------------2----------|--2--2-------2--2-------|
E|-------0--0-------0--0--|------------------------|

Verse (Play Twice)
G|--------------------------|    |--------------------------|
D|--------------------------| x4 |--------------------------| x2
A|--2--2--2--2--2--2--2--2--|    |--0--0--0--0--0--0--0--0--|
E|--------------------------|    |--------------------------|
 
G|------------------------|------------------------|
D|------------------------|--------------2----2----|
A|--5--4--2----2--2--5----|--2--2--2--2------------|
E|------------------------|------------------------|
 
Pre-Chorus
G|------------------------|-------------------------|
D|------------------------|-------------------------|
A|------------------------|-------------------------|
E|--2----0--0--2----0--0--|--2----0--0--0--2--3--2--|
 
G|------------------------|----------------------|------------------------|
D|------------------------|----------------------|------------------------|
A|------------------------|-------------3--------|------------------------|
E|--2----0--0--2----0--0--|--3--2--0-------------|--2----0--0--2----0--0--|

G|------------------------|------------------------|-------------------------|
D|------------------------|------------------------|-------------------------|
A|------------------------|------------------------|--------------4--2--0----|
E|--2----0--0--0--2--3----|--2----0--0--2----0--0--|--2--2--2--2-------------|

Chorus 
G|--------------------------|--------------------------|
D|--------4--------5--------|--4--------2--------4-----|
A|--2--2-----2--2-----2--2--|-----2--2-----2--2-----2--|
E|--------------------------|--------------------------|
 
G|--------------------------|--------------------------|
D|--------2-----------------|--------------------------|
A|--0--0-----0--0--4--------|--------4-----5-----4-----|
E|--------------------2--2--|--2--2-----2-----2-----2--|
 
G|--------------------------|--------------------------|----------------------|
D|--------4--------5--------|--4--------2--------4-----|--------2--2--2-------|
A|--2--2-----2--2-----2--2--|-----2--2-----2--2-----2--|--0--0-----------4----|
E|--------------------------|--------------------------|----------------------|

G|------------------------|----------------------|----------------------|
D|------------------------|--2----------3--------|--2----------0--------|
A|--------4-----5--4------|----------------------|----------------------|
E|--2--2-----2------------|-------0--0-----------|-------0--0-----------|
                                                                  
G|----------------------|-------------------|----------------------|
D|--2-------------------|--0----------------|--2----------3--------|
A|-------------2--------|-------------------|----------------------|
E|-------0--0-----------|-------------------|-------0--0-----------|
                                                                       
G|----------------------|----------------------|--------2----------2----|
D|--2----------0--------|--2-------------------|------------------------|
A|----------------------|-------------2--------|--2--2-------2--2-------|
E|-------0--0-----------|-------0--0-----------|------------------------|

Play Verse x 2
Pre-Chorus
Chorus

Solo                                                             
G|--------------------------|    |---------------------------|
D|--------------------------| x4 |*-------------------------*|
A|--2--2--2--2--2--2--2--2--|    |*--0--0--0--0--0--0--0--0-*|
E|--------------------------|    |---------------------------|

G|--------------------------| |--------------------------|  
D|--------------------------| |--------------------------| x5
A|--5--4--2--2--2--2--2--2--| |--2--2--2--2--2--2--2--2--|
E|--------------------------| |--------------------------|

G|---------------------------|
D|*-------------------------*|
A|*--0--0--0--0--0--0--0--0-*|
E|---------------------------|
 
G|--------------------------|--------------------------|
D|--------------------------|--------------------------|
A|--------------------------|--0--0--0--0--0--0--0--0--|
E|--3--3--3--3--3--3--3--3--|--------------------------|
 
G|---------------------|--------------------------|
D|*-------------------*|--------------------------| x5
A|*--5--4--2----------*|--2--2--2--2--2--2--2--2--|
E|---------------------|--------------------------|

G|--------------------------|
D|*------------------------*|
A|*------------------------*|
E|--3--3--3--3--3--3--3--3--|
 
G|--------------------------|--------------------------|
D|--------------------------|--------------------------|
A|--------------------------|--------------------------|
E|--0--0--0--0--0--0--0--0--|--2--2--2--2--2--2--2--2--|

G|--------------------------|----------------------------| 
D|--------------------------|*--------------------------*|
A|--------------------------|*--0--0--0--0--0--0--0--0--*|
E|--3--3--3--3--3--3--3--3--|----------------------------|

G|--------------------------|
D|*------------------------*|
A|*------------------------*|
E|--2--2--2--2--2--2--2--2--|

G|-------------------|-------------------------|------------------------|
D|-------------------|*------------------------|------------------------|
A|-------------------|*------------------------|------------------------|
E|--2----------------|--2----0--0--2----0--0---|--2----0--0--0--2--3----|
 
G|------------------------|-----------------------|
D|------------------------|----------------------*|
A|------------------------|-------------3--------*|
E|--2----0--0--2----0--0--|--3--2--0--------------|
 
G|------------------------|-------------------|
D|------------------------|-------------------|
A|-------------3--2--0----|--2----------------|
E|--3--2--0---------------|-------------------|
 
G|-------------------------|------------------------|------------------------|
D|*--2----------------3----|--2----------------0----|--2---------------------|
A|*------------------------|------------------------|-------------2----------|
E|--------0--0--0--0-------|-------0--0--0--0-------|-------0--0-------0--0--|
 
G|--------------------|
D|--0----------------*|
A|-------------------*|
E|--------------------|

Pre-Chorus
Chorus x 2 (Don't play intro like riff)

Outro 
G|------------------------|------------------------|------------------------|
D|--2----------------3----|--2----------------0----|--2---------------------|
A|------------------------|------------------------|-------------------2----|
E|-------0--0--0--0-------|-------0--0--0--0-------|-------0--0--0--0-------|

G|-------------------| x9
D|--0----------------|
A|-------------------|
E|-------------------|
Suggest correction
Give kudos to tab author, rate the tab!
1 2 3 4 5
comments
print report bad tab
guest
You may want to rate the tab now too:
select rating
Wanna post a correction for this tab? Suggest correction