Oops, an error
Loading. Please wait.

Nightcrawler Tab

version 1
version 1

Whole song

Interactive

57,545 views 90 this week
3 commentsread comments
1 2 3 4 5
x 28
add to favorites
launch autoscroll
font size
0
reset
how to read this tab
guitar tuner
backing track
0:00
0:00
×
Best way to learn
"Nightcrawler"
Autoscroll
slow
fast
+/-
esc
set tempo
stop
(Tempo= 96)
e|----------------------------------|
A|----------------------------------|
B|-----9-------9---------------7----|
G|---9-------9-------9-------7------|
D|-7-----8-7-----5-7-----9-5-----5--|
E|---------------------7------------|   (x4)

(Tempo= 192)
(Riff 1)
e|----------------------------------------------------------------------------|
A|----------------------------------------------------------------------------|
B|-9---------10-9---------7-9-----------7-------------9---------10-9----------|
G|-9---------10-9---------7-9-----9-----7-------------9---------10-9----------|
D|-7---------8--7---------5-7-----9-----5-------------7---------8--7----------|
E|---0-0-0-0------0-0-0-0-----0-0-7-0-0---0-0-0-0-0-0---0-0-0-0------0-0-0-0--|
   pm.....      pm.....     pm.   pm.   pm.........   pm.....      pm.....

e|---------------------------------|
A|---------------------------------|
B|-7-9-----------------------------|
G|-7-9-----9---------14-----14-----|
D|-5-7-----9-----0-0-12-0-0-12-----|
E|-----0-0-7-0-0-------------------|
     pm.   pm.....    pm.

[Verse]
e|------------------------------------------------------------------|
A|------------------------------------------------------------------|
B|------------------------------------------------------------------|
G|------------------------------------------------------------------|
D|------------------------------------------------------------------|
E|-7-7-7-7-7-7-7-7-7-7-7-7-7-7-7-7-7-7-7-7-7-7-7-7-7-7-7-7-7-7-7-7--|
 pm..............................................................

e|------------------------------------------------------------------|
A|------------------------------------------------------------------|
B|--------------------------------------------7---------9-9---------|
G|--------------------------------------------7---------9-9---------|
D|--------------------------------------------5---------7-7---------|
E|-5-5-5-5-5-5-5-5-5-5-5-5-5-5-5-5-10-9-7-7-7---7-7-7-7-------------|
 pm.............................        pm.   pm.....               
(repeat once)

(After Verse, before Pre-Chorus (Riff 2)
e|----------------------------------------------------|
A|----------------------------------------------------|
B|--------------------------------------------5-------|
G|-4-----4-----4-------3-5--4-----4-----------5-------|
D|-4-----4-----4-------3-5--4-----4-----5-4---3-------|
E|-2-0-0-2-0-0-2-0-0-0-2-3--2-0-0-2-0-0-3-2-0---------|
   pm.   ...   ....        ...   ...

e|---------------------------------------------------|
A|---------------------------------------------------|
B|---------------------------------------------------|
G|-4-----4-----4-------3-5-4-----4-------------------|
D|-4-----4-----4-------3-5-4-----4-------------4-2-0-|
A|-2-0-0-2-0-0-2-0-0-0-2-3-2-0-0-2-0-0-2-2-2-2-------|
   pm.   ...   ....        ...   ...........

[Pre-Chorus]
e|------------------------------------------------------------------|
A|------------------------------------------------------------------|
B|------------------------------------------------------------------|
G|-----4-----5-----4-----2-----4-------2----------------------------|
D|-2-2---2-2---2-2---2-2---2-2---2-0-0---0-0-3---------4---5---4----|
E|---------------------------------------------2-2-2-2---2---2---2--|
 pm.   ...   ...   ...   ...   .....   ...   .......   .   .   .

e|------------------------------------------------------------------|
A|------------------------------------------------------------------|
B|------------------------------------------------------------------|
G|-----4-----5-----4-----2-----4-------2-2-2------------------------|
D|-2-2---2-2---2-2---2-2---2-2---2-0-0-------4------4---5-4---------|
E|----------------------------------------------2-2---2-------------|
 pm.   ...   ...   ...   ...   .....          ...   .

[Chorus]
e|---------------------------------------------------------------------------|
A|---------------------------------------------------------------------------|
B|-9-----10--9-----7--9-------7----9-----10--9-----7--9----------------------|
G|-9-----10--9-----7--9-----9-7----9-----10--9-----7--9-----9-----14-----14--|
D|-7-----8---7-----5--7-----9-5----7-----8---7-----5--7-----9-0-0-12-0-0-12--|
E|---0-0-------0-0------0-0-7--------0-0-------0-0------0-0-7----------------|
   pm.       ...      ...          ...       ...      ...   ...    ...

e|-------------|
A|-------------|
B|-9-----5-----|
G|-9--9--5--5--|
D|-7--9--3--5--|
E|----7-----3--|

e|--------------------------------------------------------------|
A|--------------------------------------------------------------|
B|--------------------------------------------------------------|
G|----------------------7-7-7-9-9-9-11-11-11-12-12-12-13-13-13--|
D|-7-7-7-9-9-9-10-10-10-----------------------------------------|
E|--------------------------------------------------------------|

e|-------------------------------------------------|
A|-------------------------------------------------|
B|-11-12-11----11----------------------------------|
G|----------14-------12---11-12-14-11-12p11p9------|
D|----------------14-------------------------------|
E|-------------------------------------------------|

(One note every 2nd beat)                              more to the right --
e|------------------------------------------------------------------------------------|
A|---------------------------------------------------------------10-------------------|
B|----11-------------------------------------------------------11---11-12-11-------11-|
G|-11----11-9-12-11-9-9-12-11-9-9-12-11-11-9-12-11-9-9-12-11-9------------------11----|
D|---------------------------------------------------------------------------13-------|
E|------------------------------------------------------------------------------------|


************************************

| .  Staccato
| p  Pull-off

************************************
Suggest correction
comments
print report bad tab
3 comments total.
+2 reply
camcorder777 10 Sep 12, 2008 05:19 PM

you are my hero for posting this!

0 reply
Blazingguns00 46 Aug 26, 2012 08:20 AM

only really tried the solo but all sounds good apart from the end of the solo into, i find it matches the song better if the last 3 notes played are 14s rather than 13.

0 reply
joshc389 10 Mar 31, 2017 12:24 AM

The second verse has a chord within it, so it ends up being:
[2nd Verse]
e|------------------------------------------------------------------|
A|------------------------------------------------------------------|
B|------------------------------------------------------------------|
G|------------------------------------------------------------------|
D|------------------------------------------------------------------|
E|-7-7-7-7-7-7-7-7-7-7-7-7-7-7-7-7-7-7-7-7-7-7-7-7-7-7-7-7-7-7-7-7--|
pm..............................................................

e|------------------------------------------------------------------|
A|------------------------------------------------------------------|
B|--------------------------------------------7---------9-9---------|
G|--------------------------------------------7---------9-9---------|
D|--------------------------------------------5---------7-7---------|
E|-5-5-5-5-5-5-5-5-5-5-5-5-5-5-5-5-10-9-7-7-7---7-7-7-7-------------|

e|------------------------------------------------------------------|
A|------------------------------------------------------------------|
B|------------------------------------------------------------------|
G|---------------------------------------------------------12---12--|
D|---------------------------------------------------------12---12--|
E|-7-7-7-7-7-7-7-7-7-7-7-7-7-7-7-7-7-7-7-7-7-7-7-7-7-7-7-7-10---10--|
pm..............................................................

e|------------------------------------------------------------------|
A|------------------------------------------------------------------|
B|--------------------------------------------7---------9-9---------|
G|--------------------------------------------7---------9-9---------|
D|--------------------------------------------5---------7-7---------|
E|-5-5-5-5-5-5-5-5-5-5-5-5-5-5-5-5-10-9-7-7-7---7-7-7-7-------------|
And after the solo, there is an 11 in there as well, so it ends up being:
e|----------------------------------------------------------------------------------------|
A|-------------------------------------------------------------------10-------------------|
B|----11----------------------------------------------------------11---11-12-11-------11--|
G|-11----11-9-12-11-9-11-9-12-11-9-9-12-11-11-9-12-11-9-9-12-11-9------------------11-----|
D|------------------------------------------------------------------------------13--------|
E|----------------------------------------------------------------------------------------|

guest
You may want to rate the tab now too:
select rating
Wanna post a correction for this tab? Suggest correction