Oops, an error
Loading. Please wait.

Nostradamus Tab

version 1
version 1

Whole song

Interactive

14,980 views 6 this week
7 commentsread comments
1 2 3 4 5
accurate
x 4
add to favorites
launch autoscroll
font size
0
reset
how to read this tab
guitar tuner
Autoscroll
slow
fast
+/-
esc
set tempo
stop
Help us to improve Ultimate-Guitar.com Take our survey!
×
Author
h - hammer on
p - pull off
^ - bend
/ - slide
PM (or a |-| above the note)- palm mute


This is my first try at a tab, hope you like it. I think I'm the fist to do this song

Rob finishes singing the opera type thing

     |----|  |----------------------|
|-------------------------| REPEAT--| x3
|-----------------------------------|
|-----------------------------------|
|-0h2------2------------------------|
|-0--0-0-0-0--0-0-0-0-0-0-----------|
|-----------------------------------|

|-------------------------|
|-------------------------|
|-------------------------|
|-5-5-4-5-----------------|
|-3-3-2-3-----------------|
|-------------------------|

      |----|  |---------------------|
|-------------------------| REPEAT--| x3
|-----------------------------------|
|-----------------------------------|
|-0h2------2------------------------|
|-0--0-0-0-0--0-0-0-0-0-0-----------|
|-----------------------------------|

|-------------------------|
|-------------------------|
|-------------------------|
|-5-5-7-2-----------------|
|-3-3-5-0-----------------|
|-------------------------|

     |----|  |----------------------|
|-------------------------| REPEAT--| x3
|-----------------------------------|
|-----------------------------------|
|-0h2------2------------------------|
|-0--0-0-0-0--0-0-0-0-0-0-----------|
|-----------------------------------|

|-------------------------|
|-------------------------|
|-------------------------|
|-5-5-4-5-----------------|
|-3-3-2-3-----------------|
|-------------------------|

     |----|  |----------------------|
|-------------------------| REPEAT--| x3
|-----------------------------------|
|-----------------------------------|
|-0h2------2------------------------|
|-0--0-0-0-0--0-0-0-0-0-0-----------|
|-----------------------------------|

|-------------------------|
|-------------------------|
|-------------------------|
|-5-5-7-2-----------------|
|-3-3-5-0-----------------|
|-------------------------|


  PM|--|  |--|  |---------------------|
|---------------------------| REPEAT--| x4
|-------------------------------------|
|-------------------------------------|
|-7-----5-----7-----5-7/8-5-----------|
|---0-0---0-0---0-0-------------------|
|-------------------------------------|

|--------------------------------|
|--------------------------------|
|--------------------------------|
|--------------------------------|
|-7-5-7-----------7-5-7----------|
|-5-3-5--3-5-6-3--5-3-5--3-5-6-3-|

 PM|--|  |--|   |---------------------|
|---------------------------| REPEAT--| x4
|-------------------------------------|
|-------------------------------------|
|-7-----5-----7-----5-7/8-5-----------|
|---0-0---0-0---0-0-------------------|
|-------------------------------------|

|--------------------------------|
|--------------------------------|
|--------------------------------|
|--------------------------------|
|-7-5-7-----------7-5-7----------|
|-5-3-5--3-5-6-3--5-3-5--3-5-6-3-|


|--------------------------------------------------|  REPEAT x2
|--------------------------------------------------|
|-------------------------9------------------------|
|-------7----9-------7--7----------7----9------7-9-|
|-----7----7-------7-------------7----7------7-----|
|-5-------------5------------5-------------5-------|


|----------------------------------| REPEAT x2
|----------------------------------|
|----------------------------------|
|-9--10-9------7--9-7-5---5--7-5-7-|
|-7---8-7-12---5--7-5-3---3--5-3-5-|
|---------10-----------------------|


 PM|-|    |-|  |-|      |-|    |------------------------|
|---------------------------------------------| REPEAT--| x2
|-------------------------------------------------------|
|-------------------------------------------------------|
|-------------------------------------------------------|
|-7-0-5-7--0--7-0-8-5--7-0-5-7----------5/7-------------|
|-5-0-3-5--0--5-0-6-3--5-0-3-5--5-0-3-5-----7-----------|


 PM|--|  |--|   |---------------------|
|---------------------------| REPEAT--| x4
|-------------------------------------|
|-------------------------------------|
|-7-----5-----7-----5-7/8-5-----------|
|---0-0---0-0---0-0-------------------|
|-------------------------------------|

|--------------------------------|
|--------------------------------|
|--------------------------------|
|--------------------------------|
|-7-5-7-----------7-5-7----------|
|-5-3-5--3-5-6-3--5-3-5--3-5-6-3-|

 PM|--|  |--|   |---------------------|
|---------------------------| REPEAT--| x4
|-------------------------------------|
|-------------------------------------|
|-7-----5-----7-----5-7/8-5-----------|
|---0-0---0-0---0-0-------------------|
|-------------------------------------|

|--------------------------------|
|--------------------------------|
|--------------------------------|
|--------------------------------|
|-7-5-7-----------7-5-7----------|
|-5-3-5--3-5-6-3--5-3-5--3-5-6-3-|


|--------------------------------------------------|  REPEAT x2
|--------------------------------------------------|
|-------------------------9------------------------|
|-------7----9-------7--7----------7----9------7-9-|
|-----7----7-------7-------------7----7------7-----|
|-5-------------5------------5-------------5-------|


|----------------------------------| REPEAT x2
|----------------------------------|
|----------------------------------|
|-9--10-9------7--9-7-5---5--7-5-7-|
|-7---8-7-12---5--7-5-3---3--5-3-5-|
|---------10-----------------------|


   |-|    |-|  |-|      |-|    |------------------------|
|---------------------------------------------| REPEAT--| x2
|-------------------------------------------------------|
|-------------------------------------------------------|
|-------------------------------------------------------|
|-7-0-5-7--0--7-0-8-5--7-0-5-7----------5/7-------------|
|-5-0-3-5--0--5-0-6-3--5-0-3-5--5-0-3-5-----7-----------|


|--------------------------------------| REPEAT x4
|--------------------------------------|
|--------------------------------------|
|--------------------------------------|
|--------7---10-9-10--9-7-5------------|
|-7-9-10---7----------------9-10-9-7-5-|


(This part isn't fully done. I may come back to it later, but use this as a base, and 
play around with it)
|--------------------------------------------------------------|
|--------------------------------------------------------------|
|--------------------------------------------------------------|
|-----9-10-12-14-14-9-10-12-14-9-10-12-14-7-8-10-12------------|
|-7-7-----------------------------------------------9-10-12-14-|
|--------------------------------------------------------------|

     |----|  |----------------------|
|-------------------------| REPEAT--| x3
|-----------------------------------|
|-----------------------------------|
|-0h2------2------------------------|
|-0--0-0-0-0--0-0-0-0-0-0-----------|
|-----------------------------------|

|-------------------------|
|-------------------------|
|-------------------------|
|-5-5-4-5-----------------|
|-3-3-2-3-----------------|
|-------------------------|

      |----|  |---------------------|
|-------------------------| REPEAT--| x3
|-----------------------------------|
|-----------------------------------|
|-0h2------2------------------------|
|-0--0-0-0-0--0-0-0-0-0-0-----------|
|-----------------------------------|

|-------------------------|
|-------------------------|
|-------------------------|
|-5-5-7-2-----------------|
|-3-3-5-0-----------------|
|-------------------------|


(this part is the backup to the solo also)
        |-----|              |------------|
|-----------------------------------------|
|-----------------------------------------|
|-----------------------------------------|
|-3p2-2--0-0-0--3p2-2-5-0-3p2-0-0-0-3p2---|
|-1p0-0--0-0-0--1p0-0-3-2-1p0-0-0-0-1p0---|
|-----------------------------------------|


(I haven't figured out the solo, I'll put it on if i ever get it)


|------------------------| REPEAT x3
|------------------------|
|------------------------|
|------------------------|
|-9-10-9---9-10-9-7-9-10-|
|-7--8-7---7--8-7-5-7--8-|

|--------------------------------------------------|  REPEAT x2
|--------------------------------------------------|
|-------------------------9------------------------|
|-------7----9-------7--7----------7----9------7-9-|
|-----7----7-------7-------------7----7------7-----|
|-5-------------5------------5-------------5-------|


|----------------------------------| REPEAT x2
|----------------------------------|
|----------------------------------|
|-9--10-9------7--9-7-5---5--7-5-7-|
|-7---8-7-12---5--7-5-3---3--5-3-5-|
|---------10-----------------------|

   |-|    |-|  |-|      |-|    |------------------------|
|---------------------------------------------| REPEAT--| x2
|-------------------------------------------------------|
|-------------------------------------------------------|
|-------------------------------------------------------|
|-7-0-5-7--0--7-0-8-5--7-0-5-7----------5/7-------------|
|-5-0-3-5--0--5-0-6-3--5-0-3-5--5-0-3-5-----7-----------|


 PM|--|  |--|   |---------------------|
|---------------------------| REPEAT--| x2
|-------------------------------------|
|-------------------------------------|
|-7-----5-----7-----5-7/8-5-----------|
|---0-0---0-0---0-0-------------------|
|-------------------------------------|

|--------------------------------| REPEAT x4
|--------------------------------|
|--------------------------------|
|--------------------------------|
|-7-5-7-----------7-5-7----------|
|-5-3-5--3-5-6-3--5-3-5--3-5-6-3-|


|-------------------------|
|-------------------------|
|-------------------------|
|-------------------------|
|-----------3-5-3-1-3-----|
|-9-7-5-7-5-----------2-4-|


And thats it
Suggest correction
What's this?
You can suggest a correction to this tab. Community and Mods will review your correction and vote to approve or reject it.
comments
print report bad tab
7 comments total. Showing first comments.
+3 reply
GeoffreySmis 730 wrote on May 16 2008, 10:14 pm

thats pretty damn cool man

0 reply
SG_Ronin 47 wrote on June 2 2008, 12:40 am

almost but the intro riff during the scream is actually a hammer on on the D string between the 5th and 7th frets while picking the open A string. Some of the bridges are incorrect.

0 reply
Eagle Thunder 71 wrote on August 18 2008, 08:16 pm

i think in the bridge before the second verse they play pulloffs from the second frets of the g and d strings, then go back to the verse riff

guest
You may want to rate the tab now too:
select rating
Please do not post tabs as comments. Select "correction" instead!