Oops, an error
Loading. Please wait.

Nostradamus Tab

version 2
version 2

Whole song

Interactive

3,165 views 3 this week
1 commentread comment
1 2 3 4 5
excellent!
x 4
add to favorites
launch autoscroll
font size
0
reset
how to read this tab
guitar tuner
Tab Pro tools
  • play this tab
  • loop segment
  • change instrument
  • show fretboard
  • metronome
×
Best way to learn
"Nostradamus"
Autoscroll
slow
fast
+/-
esc
set tempo
stop
Difficulty
advanced
Band:  Judas Priest
Album: Nostradamus
Song:  Nostradamus

Copyright (c) (Sony) (2008)
Version 2.0 

Transcribed By: ju.da.s
Email: metalgod.jp@hotmail.com       


.  - palm mute           /  - slide up to
\  - slide down to       ~  - vibrato
h  - hammer on           b  - Bend
p  - pull off            Suffixes for bend
t  - tap                 f  - full bend    h - half bend
ph - pinched harmonic    q  - quarter bend t - tap bend
*  - see comment         ^  - Hold bend    r release bend
x  - Stuccatto           ~  - vibrato bend
,  - slight palm mute    () - ghost note, sustained note
"  - tremolo note        <> - Trill

Tunning E A D G B E


Intro after the opera intro 
Riff 1
|---------------------------|x3|------------------------|
|---------------------------| |-------------------------|
|---------------------------| |-------------------------|
|---------------------------| |-5-5-4-5-----------------|
|-5h7------7----------------| |-3-3-2-3-----------------|
|-5--5-5-5-5--5-5-5-5-5-5---| |-------------------------|

|---------------------------|x3|-----------------------|
|---------------------------||-------------------------|
|---------------------------||-------------------------|
|---------------------------||-5-5-7-7-----------------|
|-5h7------7----------------||-3-3-5-5-----------------|
|-5--5-5-5-5--5-5-5-5-5-5---||-------------------------|

Repeat the riff 1 2 times whole parts 

Verse riff 2

  PM|--|  |--|  |----------|
|-----------------------------|x4 |---------------------------------|
|-----------------------------|   |---------------------------------|
|-----------------------------|   |---------------------------------|
|-7-----5-----7-----5-7/8-5---|   |---------------------------------| 
|---0-0---0-0---0-0-----------|   |-7-5-7--5-7-8-5--7-5-7--5-7-8-5--|
|-----------------------------|   |-5-3-5--3-5-6-3--5-3-5--3-5-6-3--|

Repeat the verse part (riff 2) 2 times

Prechorus riff 3
         A.H         A.H       A.H              A.H       
|---------------------------------------------------| REPEAT x2
|---------------------------------------------------|
|--------10----------7---------10---------------7~--|
|-------9----------9----------9--------9---10-------|
|----7----------7----------7---------7---7----7-----|
|-0----------0----------0----------0----------------|

Chorus riff 4
|-----------------------------------------| (x2)
|-----------------------------------------|
|-----------------------------------------|
|-9--7-9-10---7--9-7-5--5--7-5-4--4-------|
|-7--5-7-8----5--7-5-3--3--5-3-2--2-5--7--|
|-----------------------------------3--5--|

Break riff 5
|------------------------------------------------| x2
|------------------------------------------------|
|------------------------------------------------|
|------------------------------------------------|
|-7---5-7--x--7---8-7--7---5-7----------5/7-3----|
|-5-0-3-5--x--5-0-6-5--5-0-3-5--5-0-3-5-------5--|

Repeat all riffs two times in order except the first (riff 1)
After play the next riff 

Presolo verse riff 6 part A
|-------------------------------------------|
|-------------------------------------------|
|-------------------------------------------|
|-------------------------------------------|
|--7-0-9-0-10-0-12-0-10-0-14-0-12-0-15-0-14-|
|-------------------------------------------|
Part B
|---------------------------------|
|---------------------------------|
|---------------------------------| after play this - repeat
|---------------------------------| the part A and after play the part c
|-12-0-10-0-9-0-12-0-10-0-9-0-6-0-|
|---------------------------------|
Part C                  A.H
|---------------------------|
|---------------------------|
|---------------------------|
|---------------------------| REPEAT WHOLE 2 TIMES (X2)
|-12-0-10-0-9-0-10-0-9-0-7~-|
|---------------------------|

the next part is a little solo after the solo's 
part of glenn and kk but I don't know how is this part
|---------------------------------------|------------------------------|
|---------------------------------------|------------------------------|
|----------------7-9--------------------|------------------------------|
|-7-7--9-10--10-------5-5-7-9--7-7-9-10-|-3-3-5-7--5-5-7-9------6-9-7--|
|---------------------------------------|--------------------7-7-------|
|---------------------------------------|------------------------------|
  Play again the first bar and  and after  play this 
|----------------------------------------|
|----------------------------------------|
|----------------------------------------|
|--6-6-8-10-8-10-12-10-12-14-12-14-16~---|
|----------------------------------------|
|----------------------------------------|
Riff 1 again   two times 

enjoy and rated thank's
comments
print report bad tab
1 comment total.
0 reply
CinderellaFan14 wrote on April 5 2012, 01:41 am

This is an incredibly awesome Judas Priest song! Perfect tab, thanks! 5 stars!

I want to post or [tab]
guest
You may want to rate the tab now too:
select rating
Please do not post tabs as comments. Select "correction" instead!