Oops, an error
Loading. Please wait.

One For The Road Tab

version 1
version 1

Whole song

Interactive

3,365 views 18 this week
no commentswrite comment
1 2 3 4 5
please rate
add to favorites
launch autoscroll
font size
0
reset
how to read this tab
guitar tuner
Tab Pro tools
  • play this tab
  • loop segment
  • change instrument
  • show fretboard
  • metronome
Autoscroll
slow
fast
+/-
esc
set tempo
stop
Contributor
Difficulty
novice
Band: Judas Priest
Album: Rocka Rolla
Song: One for the Road

INTRO AND MAIN RIFF
                              GTR I

e------------------------------------------------------------------|
B------------------------------------------------------------------|
G------------------------------------4--------4/-------------------|
D---------0h2-------2--2--2--2--2----------------------------------|
A----0h2------------2--2--2--2--2----------------------------------|
E-------------------0--0--0--0--0----------------------------------|
      .             .  .  .  .  .


                             GTR II

e-----------------------------------2-----2---------------------------|
B-----------------------------------2-3---2-3-------------------------|
G----0h2----------------------------2-4---2-4-------------------------|
D---------0h2------2--2--x--2--x----2-----2---------------------------|
A------------------2--2--x--2--x--------------------------------------|
E------------------0--0--x--0--x--------------------------------------|


CHORUS

                             GTR I

e-------------------------------------------------------------------------|
B--------------------------------------------------------------------3--3-|
G----2--0---0h2----2--0-------------------2--0---0h2---4p2p0--4p2p0-------|
D---------2---------------2--0h2p0h2p0---------2--------------------------|
A-------------------------------------------------------------------------|
E-------------------------------------------------------------------------|

                             GTR II


e-----------------------------------------------------------------------|
B-----------------------------------------------------------------------|
G----2--2--2--------2--2--2--------2--2--2--------2--2--2---------------|
D----2--2--2--------2--2--2--------2--2--2--------2--2--2---------------|
A----0--0--0--------0--2--0--------0--0--0--------0--0--0---------------|
E-----------------------------------------------------------------------|


RHYTHM FOR SOLO 1


e-------------2----------------------------------------------------------|
B-------------2-3--------------------------------------------------------|
G-------------2-4--------------------------------------------------------|
D----2--2--2--2----0h2---------------------------------------------------|
A----2--2--2----------0h2------------------------------------------------|
E----0--0--0-------------------------------------------------------------|

AFTER SOLO GTR II GOES IMMEDIATELY TO MAIN RIFF

AFTER SOLO GTR I TURNS TO:


e-----------------------------------------------------------------------|
B-----------------------------------------------------------------------|
G----0h2--------------------4-----4/------------------------------------|
D-------0h2-2--2--2--2--2-----------------------------------------------|
A-----------2--2--2--2--2-----------------------------------------------|
E-----------0--0--0--0--0-----------------------------------------------|
     .   .  .  .  .  .  .


RHYTHM FOR SOLO 2


e-----------------------------------------------------------------------|
B-----------------------------------------------------------------------|
G----0h2----------------4----4/-----------------------------------------|
D-------0h2--2--2--2----------------------------------------------------|
A------------2--2--2----------------------------------------------------|
E------------0--0--0----------------------------------------------------|
     .   .   .  .  .

REPEAT THE RIFF ABOVE 4 TIMES THEN MOVE ON TO:


e------------------------------------------------------------------------|
B------------------------------------------------------------------------|
G----0h2----------------------4----4/------------------------------------|
D-------0h2--2--2--2--2--2-----------------------------------------------|
A------------2--2--2--2--2-----------------------------------------------|
E------------0--0--0--0--0-----------------------------------------------|
     .   .   .  .  .  .  .


SORRY DUDES NO SOLO... ENJOY

ANY COMMENT OR QUESTIONS FEEL FREE TO EMAIL ME, ROBERT, AT: uriah_tull88@hotmail.com
comments
We did not receive enough feedback on this tab! Please rate:
print report bad tab
1 2 3 4 5
I want to post or [tab]
guest
You may want to rate the tab now too:
select rating
Please do not post tabs as comments. Select "correction" instead!