Oops, an error
Loading. Please wait.

One On One Tab

version 1
version 1

Whole song

Interactive

3,733 views 3 this week
3 commentsread comments
1 2 3 4 5
please rate
add to favorites
launch autoscroll
font size
0
reset
how to read this tab
guitar tuner
Autoscroll
slow
fast
+/-
esc
set tempo
stop
Help us to improve Ultimate-Guitar.com Take our survey!
×
Song: One on One
Album: Demolition

Tabbed by Everton Alceu Carara (carara747@bol.com.br)
E-mail me with Corrections & Comments.


 Intro: 4x					4x
|------------------------------------|------------------------------------|-----|
|------------------------------------|------------------------------------|-----|
|--9-----9---------9-----7---10-7----|------------------------------------|-----|
|--9-----9---------9-----7---10-7----|---2-----5-----2-----5-----2---5----|--2--|
|--7-----7---------7-----5----8-5----|---2-----5-----2-----5-----2---5----|--2--|
|----0-0---0-0-0-0---0-0---0------0--|---0-0-0-3-0-0-0-0-0-3-0-0-0-0-3-0--|--0--|
     . .   . . . .   . .   .      .        . .   . .   . .   . .   .   .


 Verse
|---------------------------|
|---------------------------|
|--9-7-9-----------7-10--7--|
|--9-7-9-----------7-10--7--|
|--7-5-7-----------5--8--5--|
|--------0-0-0-0-0----------|
	 . . . . .

 Pre-Chorus
|-----------------------------------------|-------------------------------------|
|-----------------------------------------|-------------------------------------|
|-----------------------------------------|-------------------------------------|
|--2--5--7--7/87--5---2--5--7--7-7--7-7--|--2--5--7--7/87-5--5-----5-----5------|
|--2--5--7--7/87--5---2--5--7--7-7--7-7--|--2--5--7--7/87-5--5-----5-----5------|
|--0--3--5--5/65--3---0--3--5--5-5--5-5--|--0--3--5--5/65-3--3-3-3-3-3-3-3------|


 Chorus: 2x
|-------------------------------------------------------------|
|-------------------------------------------------------------|
|--8-7-7-------7---9---10---12----8-7-7-------7---9---10---9--|
|--8-7-7-------7---9---10---12----8-7-7-------7---9---10---9--|
|--6-5-5-------5---7----8---10----6-5-5-------5---7----8---7--|
|--------0-0-0---0---0----0-------------0-0-0---0---0----0----|
	 . . .   .   .    .             . . .   .   .    .
Downloaded From: www.ogregod.com
Suggest correction
What's this?
You can suggest a correction to this tab. Community and Mods will review your correction and vote to approve or reject it.
comments
We did not receive enough feedback on this tab! Please rate:
print report bad tab
1 2 3 4 5
3 comments total.
0 reply
SGdude452 58 wrote on January 4 2007, 03:24 pm

Good tab for the parts it has, but it's missing a lot and by the way the tuning is one step down.

0 reply
SGdude452 58 wrote on January 4 2007, 03:45 pm

Also, this:

|-------------------------------------------------------------|
|-------------------------------------------------------------|
|--8-7-7-------7---9---10---12----8-7-7-------7---9---10---9--|
|--8-7-7-------7---9---10---12----8-7-7-------7---9---10---9--|
|--6-5-5-------5---7----8---10----6-5-5-------5---7----8---7--|
|--------0-0-0---0---0----0-------------0-0-0---0---0----0----|
. . . . . . . . . . . .

Should be this:

|---------------------------------------------------------------|
|---------------------------------------------------------------|
|--10-9-9-------7---9---10---12----10-9-9-------7---9---10---9--|
|--10-9-9-------7---9---10---12----10-9-9-------7---9---10---9--|
|--8--7-7-------5---7----8---10----8--7-7-------5---7----8---7--|
|---------0-000---0---0----0--------------0-000---0---0----0----|
. ... . . . . ... . . .

0 reply
SGdude452 58 wrote on January 4 2007, 03:46 pm

oops the dots came out all ****ed up

guest
You may want to rate the tab now too:
select rating
Please do not post tabs as comments. Select "correction" instead!