Oops, an error
Loading. Please wait.

One Shot At Glory Bass Tab

version 1
version 1

Whole song

Interactive

1,288 views 6 this week
no commentswrite comment
1 2 3 4 5
please rate
add to favorites
launch autoscroll
font size
0
reset
guitar tuner
Tab Pro tools
  • play this tab
  • loop segment
  • change instrument
  • show fretboard
  • metronome
×
Best way to learn
"One Shot At Glory"
Autoscroll
slow
fast
+/-
esc
set tempo
stop
Difficulty
advanced
Judas Priest
Song : One Shot at Glory
Album : painkiller
Copyright (c)  (CBS) (1988)
Version 1.0 - (28/02/05)

Ian hill bass

Tuning :standar E

Intro  after the first riff in guitar

|----------------------|
|----------------------|
|----------------------|
|--3--2------3--5------|

Main riff 
verse and intro
|--------------------------|--------------------------|--------------------------|
|--------------------------|--------------------------|--------------------------|
|--2--2--2--2--2--2--2--2--|--2--2--2--2--2--------5--|--2--2--2--2--2--2--2--2--|
|--------------------------|-----------------2--5-----|--------------------------|
  
|------------------------|                      |----------------------|
|------------------------|                      |----------------------|
|------------------------| (x6)                 |--------5-----4-------|
|--3p--2------3h--5------| before the prechorus |----3-----3-----5-----|

Prechorus

|--------------------------|--------------------------|--------------------------|
|--------------------------|--------------------------|--------------------------|
|--1---1-1--1--1---1-1--1--|--1---1-1--1--1---1-1--1--|--------------------------|
|--------------------------|--------------------------|--3---3-3--3--3---3-3--3--|

|------------------------------|--------------------------|--------------------------|
|---------------3g5------------|--------------------------|--------------------------|
|--------------------5---------|--0---0-0--0--0---0-0--0--|--0---0-0--0--0---0-0-----|
|--3---3-3--3/----------6p--3--|--------------------------|-----------------------0--|

|-----------------------|----------------------|
|--7\-------------------|--7\------------------|
|-----------0------0----|-----------0------0---|
|-----------------------|----------------------|

chorus

main riff  repeat  the next part after the nexts riffs
|------------------------------|--------------------------------|------------------------------|
|------------------------------|--------------------------------|------------------------------|
|--2--2-2-2--2-2-2--2-2-2--2-2-|--2--2-2-2--2-2-2-2-2-2-2-2-2-2-|--5--5-5-5--5-5-5--5-5-5--5-5-|
|------------------------------|--------------------------------|------------------------------|
*
|---------------------------|
|---------------------------|
|--0--0-0-0--0--------------|
|---------------3/--5----5--|
*
|-------------------------------|
|-------------------------------|
|--0--0-0-0--0--5-4-2-0-5-4-2-0-|
|-------------------------------|
*
|---------------------------|
|---------------------------|
|--0--0-0-0--0--------------|
|---------------3/--5----5--|

*
|-----------------------------|
|-----------------------------|
|--0--0-0-0--0-0-------4------|
|----------------0--5-----5/--|

Interlude A
|--------------------------|--------------------------|
|--------------------------|--------------------------|
|--2--2--2--2--2--2--2--2--|--2--2--2--2--2--0--5--4--|
|--------------------------|--------------------------|

|--------------------------|---------------------------|
|--------------------------|---------------------------|
|--0--0--0--0--0--0--0-----|--7-----7-----7\--5--L--5--| (x2)
|-----------------------0--|---------------------------|

Main riff (x2)

Repeat
Verse : main riff 
Prechorus 
Chorus
Interlude (x2)

Interlude B Riff
   
|------------------------------|-------------------------|---------------------------|
|------------------------------|-----------------5-------|---------------------------|
|------------------------------|-------------------------|--2---2-2--2--2--2--2------|
|--3---3-3--3--3-3-3-3-3-3-3-3-|--3---3-3--3--3-----3----|-----------------------2/--|


|---------------------------|--------------------------|--------------------------|
|------------9--------------|--------------------------|--------------------------|
|---------------9-----------|--------------------------|--------------------------|
|--7---7-7/--------7--L--5--|--3---3-3--3--3--3--3--3--|--3---3-3--3--3--5--3--0--|

|----------------------------|-----------------------|----------------|---------|
|-----------------2g4--4-----|-----------------------|----------------|---------|
|-------------------------4--|-----------------9\----|--2-------------|---------|
|--2---2-2--2--2-------------|--2----2----2----------|----------------|---------|
  
|-------|-----------------------|-----|-------|----------------|
|-------|-----------------------|-----|-------|----------------|
|-------|-----7--5----7--5------|-----|-------|---7--5---7--5--|
|-------|-----------------------|-----|-------|----------------|



Solo riff 1
(x4)
|--------------------------|------------------------|--------------------------|----------------|
|--------------------------|------------------------|--------------------------|----------------|
|--4--4--4--4--4--4--4--4--|--4--4--7----6--4--2----|--4--4--4--4--4--4--4--4--|--4----4/--7--L-|
|--------------------------|------------------------|--------------------------|----------------|

Solo riff 2:chorus riff 
 
|--------------------------------------|
|--------------------------------------|
|--5--5--5--5--5--5--5--5--5--5--5--5--|
|--------------------------------------| (x4)

|--------------------------------------|
|--------------------------------------|
|--3--3--3--3--3--3--3--3--3--3--3--3--| (x2)
|--------------------------------------|

|--------------------------------------|
|--------------------------------------|
|--------------------------------------| (x2)
|--1--1--1--1--1--1--1--1--1--1--1--1--|

|--------------------------------------|
|--------------------------------------| (x2)
|--1--1--1--1--1--1--1--1--1--1--1--1--|
|--------------------------------------|

|--------------------------------------|
|--------------------------------------|
|--------------------------------------| (X2)
|--3--3--3--3--3--3--3--3--3--3--3--3--|

|--------------------------------------|
|--------------------------------------|
|--5--5--5--5--5--5--5--5--5--5--5--5--| (x2)
|--------------------------------------|

|--------------------------------------|
|--------------------------------------|
|--------------------------------------| (x5)
|--5--5--5--5--5--5--5--5--5--5--5--5--|

*Prechorus riff
*Chorus riff
*Interlude B Riff

Main riff /fade out

.  - palm mute           /  - slide up to
\  - slide down to       ~  - vibrato
h  - hammer on           b  - Bend
p  - pull off            Suffixes for bend
t  - tap                 f  - full bend    h - half bend
ph - pinched harmonic    q  - quarter bend t - tap bend
*  - see comment         ^  - Hold bend    r release bend
x  - Stuccatto           ~  - vibrato bend
,  - slight palm mute    () - ghost note, sustained note
"  - tremolo note        <> - Trill
comments
We did not receive enough feedback on this tab! Please rate:
print report bad tab
1 2 3 4 5
I want to post or [tab]
guest
You may want to rate the tab now too:
select rating
Please do not post tabs as comments. Select "correction" instead!