Oops, an error
Loading. Please wait.

One Shot At Glory Tab

version 1
version 1

Whole song

Interactive

12,846 views 36 this week
1 commentread comment
1 2 3 4 5
excellent!
x 4
add to favorites
launch autoscroll
font size
0
reset
how to read this tab
guitar tuner
Tab Pro tools
  • play this tab
  • loop segment
  • change instrument
  • show fretboard
  • metronome
Autoscroll
slow
fast
+/-
esc
set tempo
stop
Difficulty
advanced
JUDAS PRIEST - ONE SHOT AT GLORY
(Painkiller, 1990)

Key
= after note = vibrato
^ after note = heavy vibrato 
\ = slide down
/ = slide up
+ = tap
h = hammer
p = pull
n = natural harmonic
s = pinching harmonic (squeal)
* = tremolo pick
t = trill
b = bend
|-3-| = triplet

n number above the tab = play the first part then the first finishing part
			 play the first part a second time and then play the second finishing part
			 etc.

Riff 1

E |------------------------------------------------------------|
B |------------------------------------------------------------|
G |-----4-----4-----4-----4------------4-----4-----------------|
D |-----4-----4-----4-----4------------4-----4-----------------|
A |-2-2-2-2-2-2-2-2-2-2-2-2-2-s3---2-2-2-2-2-2-----------------|
E |----------------------------------------------3-s2---3-s5---|

Riff 1A

E |-------------------------------------------------------------|
B |-------------------------------------------------------------|
G |-----4-----4-----4-----4------------4-----4------------------|
D |-----4-----4-----4-----4------------4-----4------------------|
A |-2-2-2-2-2-2-2-2-2-2-2-2-2-s3---2-2-2-2-2-2-2------5---4-----|
E |----------------------------------------------3--3---3---5---|

Riff 1B

E |----------------------------------------------------------------|
B |----------------------------------------------------------------|
G |-----4-----4-----4-----4------------4-----4---4-----------------|
D |-----4-----4-----4-----4------------4-----4---4-----------------|
A |-2-2-2-2-2-2-2-2-2-2-2-2-2-s3---2-2-2-2-2-2-2-2-2-s2b3-2--1\----|
E |----------------------------------------------------------------|

Riff 2

E |------------------------------------------------------------------------|
B |------------------------------------------------------------------------|
G |------------------------------------------------------------------------|
D |-8---------------------------------7------------------------------------|
A |-8----------------1----------------7----------------5---4-----5---4-----|
E |-6----------------3----------------5----------------5---5-----5---5-----|

Riff 2A

E |------------------------------------6-------------------6----10---9-------10---9-------|
B |-----------3----6--------------6---------8----6----8------------------10-----------10--|
G |-3----5--------------7----8------------------------------------------------------------|
D |---------------------------------------------------------------------------------------|
A |---------------------------------------------------------------------------------------|
E |---------------------------------------------------------------------------------------|

Riff 2B

E |---------------------------------------------------------------------10---9-------|
B |-------------------------3----6----5----3----2----3----11---10---10-----------10--|
G |---------------3----5-------------------------------------------------------------|
D |----------------------------------------------------------------------------------|
A |----------------------------------------------------------------------------------|
E |----------------------------------------------------------------------------------|

Riff 2C

E |--------------------------------------------------------------------------|
B |--------------------------------------------------------------------------|
G |--------------------------------------------------------------------------|
D |-8-----------------------------8-7-5-7------------------------------------|
A |-8----------------1------------8-7-5-7----------------5---4-----5---4-----|
E |-6----------------3------------6-5-3-5----------------5---5-----5---5-----|
				 |-3-|

Riff 3

E |-----------------------------------------------------------------------------------------------|
B| -----------------------------------------------------------------------------------------------|
G |-----------------------------------------7-----------------------------------------------------|
D |-----------------------------------------7------7---5-7----------------------------------------|
A |-2-22-2-22-2-22-2-22-2-22-2-22-2-22-2-22-5------7---5-7---2-22-2-22-2-22-2-22-2-22-2-22-2-22-22|
E |------------------------------------------------5---3-5----------------------------------------|

  1			      2
E |---------------------------| |-------------------|
B |---------------------------| |-------------------|
G |-7-------------------------| |-7-----------------|
D |-7--------7----------------| |-7--------7--------|
A |-5--------7----75-4--54----| |-5--------7--------|
E |----------5--------7----75-| |----------5--------|

Riff 4

E --------------------------------------------------------------|
B --------------------------------------------------------------|
G -----------------------------------------------9----9---9-7---|
D -----------------------------------------------9----9---9-7---|
A -----------------------------------------------7----7---7-5---|
E -7-7-7-7-7-7-7-7-7-7-7-7-7-7-7-7-5-5-5-5-5-5-5-0--0---0-------|

Riff 4A

E ---------------------------------------------------------------------------------|
B ---------------------------------------------------------------------------------|
G -------11-------12-------11-------11-------------9-------11-------12---9---9-7---|
D ----12-------12-------12-------12-----14------11------11-------11------9---9-7---|
A -14-------14-------14-------14-------------12------12-------12---------7---7-5---|
E ---------------------------------------------------------------------0---0-------|

Riff 5

E -----------------------------------------------------------------------------------------------|
B -----------------------------------------------------------------------------------------------|
G -----2-----2---------2-----2---------2-----2---------2-----2-----2-----2-----2---------2-----2-|
D ---0----0------0---0-----0-----0---0-----0-----0---0-----0-----0-----0----0------0---0-----0---|
A ---------------------------------2-----2-----2---2-----2-----2---------------------------------|
E -3-----3-----3---3-----3-----3-------------------------------------3-----3-----3---3-----3----3|

E |--------------------------|
B |--------------------------|
G |--------------------------|
D |-----4-----4-----4--------|
A |---2-----2-----2-4--------|
E |-2-----2-----2---2--------|

Riff 5A

E |----------------------------------------------------------------------------------------|
B |----------------------------------------------------------------------------------------|
G |---------------------------12----11----7----4----6----7----9----6----/6-/6-/6-/6--------|
D |-5----7----9----12----9-----------------------------------------------------------------|
A |---------------------------10----9 ----5----2----4----5----7----4----/4-/4-/4-/4--------|
E |-3----5----7----10----7-----------------------------------------------------------------|

Riff 6 

E |------------------------------------------------------------------------|
B |------------------------------------------------------------------------|
G |-------4-------4-------4----7--6-4-2--------4-------4----4---9-7--9-7---|
D |-------4-------4-------4----7--6-4-2--------4-------4----4---9-7--9-7---|
A |-22-22-2-22-22-2-22-22-2-22-5--4-2-0--22-22-2-22-22-2-22-2-2-7-5--7-5---|
E |------------------------------------------------------------------------|

Riff 6A

E |--------------------------------------------------------------------------------|
B |--------------------------------------------------------------------------------|
G |-------4-------4-------4----7--6-4-2--------4-------4----4---9-7--9-7--9-7--9-7-|
D |-------4-------4-------4----7--6-4-2--------4-------4----4---9-7--9-7--9-7--9-7-|
A |-22-22-2-22-22-2-22-22-2-22-5--4-2-0--22-22-2-22-22-2-22-2-2-7-5--7-5--7-5--7-5-|
E |--------------------------------------------------------------------------------|

Riff 7

E |--------------------------------------------------------------------------|
B |--------------------------------------------------------------------------|
G |-------6-------6-------6----9--8-6-4--------6-------6-------6-------9-----|
D |-------6-------6-------6----9--8-6-4--------6-------6-------6-------9-----|
A |-44-44-4-44-44-4-44-44-4-44-7--6-4-2--44-44-4-44-44-4-44-44-4-44-44-7-----|
E |--------------------------------------------------------------------------|

Riff 8

E |----------------------------------------------------------------------------------------------|
B |----------------------------------------------------------------------------------------------|
G |-7-------------------------------------------------10-----------------------------------------|
D |-7--------------8----------------10----------------10----------------0--------0-0-------------|
A |-5--------------5----------------10----------------8 ----------------1--------1-1-------------|
E |---------------------------------8 -------------------------------------------3-3-------------|

E |---------------------------------------------------------------------|
B |---------------------------------------------------------------------|
G |-7--------------------------------------------------7----------------|
D |-7----------------7----------------7----------------7----------------|
A |-5----------------4----------------4----------------5----------------|
E |---------------------------------------------------------------------|

Order

Riff 1 x 2
Solo over Riff 1 x 2
Riff 1 x 3
Riff 1A x 1
Riff 2 x 1
Riff 3 x 1
Riff 4/4A x 2
Solo over Riff 1 x 2
Riff 1 x 3
Riff 1A x 1
Riff 2/2A/2B x 1
Riff 3 x 1
Riff 4/4A x 2
Riff 5/5A x 1
Riff 6 x 2
Solo over Riff 7 x 4
Solo over Riff 3 x 2
Solo over Riff 8 x 1
Riff 1 x 1
Riff 1B x 1
Riff 2A/2B/2C x 1
Riff 3 x 1
Riff 5/5A x 1
Riff 6 x 3
Riff 6A x 1|
|
comments
print report bad tab
1 comment total.
+1 reply
RAYFFIS wrote on September 4 2010, 01:19 pm

can u tab solo please...?

I want to post or [tab]
guest
You may want to rate the tab now too:
select rating
Please do not post tabs as comments. Select "correction" instead!