Oops, an error
Loading. Please wait.

Pain And Pleasure Bass Tab

version 1
version 1

Whole song

Interactive

279 views 3 this week
no commentswrite comment
1 2 3 4 5
please rate
add to favorites
launch autoscroll
font size
0
reset
guitar tuner
Tab Pro tools
  • play this tab
  • loop segment
  • change instrument
  • show fretboard
  • metronome
×
Best way to learn
"Pain And Pleasure"
Autoscroll
slow
fast
+/-
esc
set tempo
stop
Contributor
Difficulty
intermediate
-----------------------------------------------------------------------------
		                  

                  Pain and Pleasure  - Judas Priest (BASS)
            
-----------------------------------------------------------------------------
Tabbed by: Scotto10

Tuning: standard tuning

=============================================================================

Bass



G||-------|-------|-------|-------|-------|-------|-------|-------|-------|
D||-------|-------|-------|-------|-------|-------|-------|-------|-------|
A||-------|-------|-------|-------|-------|-------|-------|-------|-------|
E||-------|-------|-------|-------|-------|-------|-------|-------|-------|


                                                  H.            Q      
-------|-------|-------|-------|-------|-------|----------------------|
-------|-------|-------|-------|-------|-------|----------------------|
-------|-------|-------|-------|-------|-------|----------------------|
-------|-------|-------|-------|-------|-------|---------------12\----|


  Q    Q    Q    Q       Q    Q    Q    E  E      Q.     Q.     Q     
----------------------|------------------------|---------------------|
----------------------|--------------------5\--|---------------------|
----------------------|------------------------|----------------3----|
--5----5----5----5----|--3----3----3----3------|--2------3-----------|


  Q    Q    E  E  E  E     Q    Q    Q    Q       Q    Q    Q    E  E    
------------------------|----------------------|------------------------|
------------------------|----------------------|--------------------5\--|
------------------------|----------------------|------------------------|
--5----5-------5--0--3--|--5----5----5----5----|--3----3----3----3------|


  Q.     Q.     Q       S S S S S Q    S Q.        Q.     Q.     S E.   
---------------------|--------------------------|----------------------|
---------------------|--------------------------|----------------------|
----------------3----|--------------------------|--5-------------------|
--2------0-----------|--5-5-5-5-5--------3------|---------5------5-3---|


  Q    E.  Q    S S S S S    Q.     H        E     S S S S S Q    S Q.      
--------------------------|---------------------|--------------------------|
--------------------------|---------------------|--------------------------|
--------------------------|---------------------|--------------------------|
--1--------3----L-0-0-1---|--3------5--------L--|--5-5-5-5-5--------3------|


  Q.     Q.     S E.     Q    E.  Q    S S S S S    Q.     Q    Q.       
----------------------|--------------------------|----------------------|
----------------------|--------------------------|----------------------|
--5-------------------|--------------------------|----------------------|
---------5------5-3---|--1--------3----L-0-0-1---|--3------5----L\------|


  W                   W                   W                   W                 
-------------------|-------------------|-------------------|-------------------|
-------------------|-------------------|-------------------|-------------------|
-------------------|-------------------|-------------------|-------------------|
-------------------|-------------------|-------------------|-------------------|


  W                   W                   W                   W                 
-------------------|-------------------|-------------------|-------------------|
-------------------|-------------------|-------------------|-------------------|
-------------------|-------------------|-------------------|-------------------|
-------------------|-------------------|-------------------|-------------------|


  S S S S S Q    S Q.        Q.     Q.     S E.     Q    E.  Q    S S S S S  
--------------------------|----------------------|--------------------------|
--------------------------|----------------------|--------------------------|
--------------------------|--5-------------------|--------------------------|
--5-5-5-5-5--------3------|---------5------5-3---|--1--------3----L-0-0-1---|


  Q.     H        E     S S S S S Q    S Q.        Q.     Q.     S E.   
---------------------|--------------------------|----------------------|
---------------------|--------------------------|----------------------|
---------------------|--------------------------|--5-------------------|
--3------5--------L--|--5-5-5-5-5--------3------|---------5------5-3---|


  Q    E.  Q    S S S S S    Q.     H        E     W                         
--------------------------|---------------------|-------------------|-------|
--------------------------|---------------------|-------------------|-------|
--------------------------|---------------------|-------------------|-------|
--1--------3----L-0-0-1---|--3------5--------L--|--L----------------|-------|


                  S S S Q    Q     Q    S    Q.     Q.     Q     
-------|-------|--------------------------|---------------------|
-------|-------|--------------------------|---------------------|
-------|-------|--------------------------|---------5-----------|
-------|-------|--5-5-5-5----L\-----------|---------------------|


  S S S Q    Q     Q    S    H        Q    Q       S S S Q    Q     Q    S  
--------------------------|---------------------|--------------------------|
--------------------------|---------------------|--------------------------|
--------------------------|---------------------|--------------------------|
--5-5-5-5----L\-----------|-----------2----3----|--5-5-5-5----L\-----------|


  Q.     Q.     Q       S S S Q    Q     Q    S    H        Q    Q     
---------------------|--------------------------|---------------------|
---------------------|--------------------------|---------------------|
---------5-----------|--------------------------|---------------------|
---------------------|--5-5-5-5----L\-----------|-----------2----3----|


  Q    Q    Q    Q       Q    Q    Q    S S E      Q.     Q.     Q     
----------------------|-------------------------|---------------------|
----------------------|---------------------5\--|---------------------|
----------------------|-------------------------|----------------3----|
--5----5----5----5----|--3----3----3----3-3-----|--2------3-----------|


  Q    Q    E  E  E  E     Q    Q    Q    Q       Q    Q    Q    E  E    
------------------------|----------------------|------------------------|
------------------------|----------------------|--------------------5\--|
------------------------|----------------------|------------------------|
--5----5-------5--0--3--|--5----5----5----5----|--3----3----3----3------|


  Q.     Q.     Q       S S S S S Q    S Q.        Q.     Q.     S E.   
---------------------|--------------------------|----------------------|
---------------------|--------------------------|----------------------|
----------------3----|--------------------------|--5-------------------|
--2------0-----------|--5-5-5-5-5--------3------|---------5------5-3---|


  Q    E.  Q    S S S S S    Q.     H        E     S S S S S Q    S Q.      
--------------------------|---------------------|--------------------------|
--------------------------|---------------------|--------------------------|
--------------------------|---------------------|--------------------------|
--1--------3----L-0-0-1---|--3------5--------L--|--5-5-5-5-5--------3------|


  Q.     Q.     S E.     Q    E.  Q    S S S S S    Q.     Q    Q.       
----------------------|--------------------------|----------------------|
----------------------|--------------------------|----------------------|
--5-------------------|--------------------------|----------------------|
---------5------5-3---|--1--------3----L-0-0-1---|--3------5----L\------|


  S S S S S Q    S Q.        Q.     Q.     S E.     Q    E.  Q    S S S S S  
--------------------------|----------------------|--------------------------|
--------------------------|----------------------|--------------------------|
--------------------------|--5-------------------|--------------------------|
--5-5-5-5-5--------3------|---------5------5-3---|--1--------3----L-0-0-1---|


  Q.     H        E     S S S S S Q    S Q.        Q.     Q.     S E.   
---------------------|--------------------------|----------------------|
---------------------|--------------------------|----------------------|
---------------------|--------------------------|--5-------------------|
--3------5--------L--|--5-5-5-5-5--------3------|---------5------5-3---|


  Q    E.  Q    S S S S S    Q.     H        E     W                  
--------------------------|---------------------|-------------------||
--------------------------|---------------------|-------------------||
--------------------------|---------------------|-------------------||
--1--------3----L-0-0-1---|--3------5--------L--|--L----------------||




Duration Legend
---------------
W - whole
H - half
Q - quarter
E - 8th
S - 16th
T - 32nd
X - 64th
. - note dotted
|-n-|  - n-tuplets


Tablature Legend
----------------
L - tied note
x - dead note
g - grace note
(n) - ghost note
> - accentuded note
NH - natural harmonic
AH - artificial harmonic
TH - tapped harmonic
SH - semi harmonic
PH - pitch harmonic
h - hammer on
p - pull off
b - bend
br - bendRelease
pb - preBend
pbr - preBendRelease
brb - bendReleaseBend
\n/ - tremolo bar dip
\n - tremolo bar dive
-/n - tremolo bar Release up
/n\ - tremolo bar inverted dip
/n - tremolo bar return
-\n - tremolo bar Release down
S - shift slide
s - legato slide
/ -  slide into from below or out of upwards
\ -  slide into from above or out of downwards
~ - vibrato
W - wide vibrato
tr - trill
TP - tremolo picking
T - tapping
S - slap
P - pop
< - fade in
^ - brush up
v - brush down
comments
We did not receive enough feedback on this tab! Please rate:
print report bad tab
1 2 3 4 5
I want to post or [tab]
guest
You may want to rate the tab now too:
select rating
Please do not post tabs as comments. Select "correction" instead!