Oops, an error
Loading. Please wait.

Prisoner Of Your Eyes Tab

version 1
version 1

Whole song

Interactive

17,322 views 24 this week
2 commentsread comments
1 2 3 4 5
excellent!
x 13
add to favorites
launch autoscroll
font size
0
reset
how to read this tab
guitar tuner
Autoscroll
slow
fast
+/-
esc
set tempo
stop
Help us to improve Ultimate-Guitar.com Take our survey!
×
Author
Difficulty
intermediate
tuning:standard
tabbed by: shredder
artist: Judas priest
album: screaming for vengeance (remastered)
song: prisoner of your eyes
year: 2001 (1982)

this is the bonus studio track on the remastered priest album "screaming for vengeance"

intro (guitar one)
E|-10-------9-------10-------12-------10----9----|
B|----12------12-------12-------12-------12---12-|
G|-------11------11-------11-------11------------|
D|-----------------------------------------------|
A|-----------------------------------------------|
E|-----------------------------------------------|
Play this twice 

then both guitars play an intro

intro 2 (guitar one)
E|-10----------12----------12-14----------14----------|
B|----12----12----12----12-------12----12----12----12-|
G|-------11----------11-------------11----------11----|
D|----------------------------------------------------|
A|----------------------------------------------------|
E|----------------------------------------------------|

E|-12----------9----10----------10-9----9-------10---------10----|
B|----12----12---12----12----11------12------12----12---10----10-|
G|-------11---------------11--------------11----------9----------|
D|---------------------------------------------------------------|
A|---------------------------------------------------------------|
E|---------------------------------------------------------------|

E|-----10---------10-14-15-12~~~|
B|---8----8----12---------------|
G|-7--------11------------------|
D|------------------------------|
A|------------------------------|
E|------------------------------|

Intro 2 (guitar two)
E|-----------------------3-------3p2-0-----------------------3-2-0-|
B|-----------------------------------------------------------------|
G|-----4-------7---------------------------4-------2---------------|
D|---4---4---7---7-----0-------4---------4---4---2---2-----5-------|
A|-2-------5---------2-------4---------2-------0---------5---------|
E|-----------------3-------2---------------------------3-----------|

E|---------|
B|---------|
G|---------|
D|-------4-|
A|-----4---|
E|-2-2-----|

Verse (one guitar)
E|-----------------------------------3-3p2---------------------|
B|-----------------------------------3---3---------------------|
G|---------------------2-4-----------0---2---------------------|
D|-------4---4-2-----4-2-4-----4-5---0-0-0-2-----------4-2-0---|
A|-2-4/5---0-----5-4-4-0-2-4h5-------2-----0---------4---------|
E|-------------------2-------------3-3-------0-1-2-2---------4-|
                                             x x x x x x x x x 

(play this twice)

Pre-chorus (both guitars)
E|--------------------------------|
B|--------------------------------|
G|-4-------------4----------------|
D|-4-5-7---7-4---4-5-7---4-4--7-7-|
A|-2-5-7---7-4---2-5-7---4-4--7-7-|
E|---3-5---5-2-----3-5---2-2--5-5-|
(play this twice)

Chorus (one guitar)
E|---------------------3------------------------|
B|---------------------3------------------------|
G|-4----------------------2---------------------|
D|-4----------------------2-------------4-2-----|
A|-2-2-4-5-----0-2---2----0-0-2-4---0-2-----5-4-|
E|---------3-3-----3--------------2-------------|
play this three times

End Chorus (one guitar)
E|---------------------3-----|
B|---------------------3-----|
G|-4---------------------2===|
D|-4---------------------2===|
A|-2-2-4-5-----0-2---2---0===|
E|---------3-3-----3---------|
play once

(verse x2, chorus x4, NO END CHORUS ON SECOND CHORUS, JUST PLAY FOUR TIMES)

Bridge (both guitars)
E|------------------------------------------------------|
B|------------------------------------------------------|
G|--------------------------------4===------------------|
D|---------5==--------5/7---------4===------------------|
A|---------5==--------5/7-2-2-2-2-2===2-2-4-5-4h5p4-2-5-|
E|-3-3-3-3-3==3-3-3-3-3/5-------------------------------|
   x x x x    x x x x     x x x x                      

E|---------------------------------------------------|
B|---------------------------------------------------|
G|---------------------------------------4==2==------|
D|---------5==--------5-4-------------5==4==2==5==4==|
A|---------5==--------5-4-------------5==2==0==5==4==|
E|-3-3-3-3-3==3-3-3-3-3-2-0-0-0-0-0---3==------3==2==|
   x x x x    x x x x     x x x x x   

-Guitar solo 1-

Rhythm guitar under solo

E|-------------------------------------------------------|
B|-------------------------------------------------------|
G|-4==7==2==4==7=--7==-----4=--7=--4==---7==---------11==|
D|-4==7==2==4==7=--7==5==4-4=4-7=--4==5==7==2-----4==11==|
A|-2==5==0==2==4=4-5==5==4-2=2-4=5\2==5==5==2-----4==9===|
E|--------------------3==2------------3==---0-0-1-2==----|

Lead guitar 1st solo

E|-------2-----------3-2-----3-2---------10-9-7----9-7------|
B|---------5-3-2---------5-3-----5-3------------10-----10-8-|
G|-2/4===--------4-------------------4===-------------------|
D|----------------------------------------------------------|
A|----------------------------------------------------------|
E|----------------------------------------------------------|

E|------------------------------------------14-12-14-12-|
B|-10-8-7---8-7-9-7---------9-9-7-7-9-9-7-7-------------|
G|--------9---------6h7p6h7-----------------------------|
D|------------------------------------------------------|
A|------------------------------------------------------|
E|------------------------------------------------------|

E|-14-14-17-14-17-14-17-19-17b18-19~~~22-17-19-14-15-14-12----|
B|---------------------------------------------------------15-|
G|------------------------------------------------------------|
D|------------------------------------------------------------|
A|------------------------------------------------------------|
E|------------------------------------------------------------|

E|-14-12------------19-15-17----14----17-14-15----14----------14-|
B|-------15-14-12~~~---------15----15----------15----15-12-15----|
G|---------------------------------------------------------------|
D|---------------------------------------------------------------|
A|---------------------------------------------------------------|
E|---------------------------------------------------------------|

E|-19-15-17h19-17h19p17p14----------------------------------|
B|-------------------------17p15p14----------------14h15h17-|
G|----------------------------------15p14-14h15h17----------|
D|----------------------------------------------------------|
A|----------------------------------------------------------|
E|----------------------------------------------------------|

E|-15h17h19p17p15\14------|
B|-------------------19~~~|
G|------------------------|
D|------------------------|
A|------------------------|
E|------------------------|

End first solo

-Second guitar solo-

Rhythm under second solo

E|------------------------------------------------|
B|------------------------------------------------|
G|---------------------------------4--------------|
D|---------5-----------------------4----------4-2-|
A|---------5----------5-7--2-2-2-2-2--2-2-2-2-2-0-|
E|-3-3-3-3-3--3-3-3-3-3-5-------------------------|
   x x x x    x x x x      x x x x    x x x x 

E|-----------------------------------------------|
B|-----------------------------------------------|
G|---------------------------------4----------4--|
D|---------5-----------------------4----------4--|
A|---------5----------5-7--2-2-2-2-2--2-2-2-2-2--|
E|-3-3-3-3-3--3-3-3-3-3-5------------------------|
   x x x x    x x x x      x x x x    x x x x 

E|------------------------------------------------------------|
B|------------------------------------------------------------|
G|-4==7==7==9==4==---7==2===4==7==7==9==4==---7==2==----------|
D|-4==7==7==9==4==5==7==2===4==7==7==9==4==5==7==2==4====4====|
A|-2==4==5==7==2==5==5==0===2==4==5==7==2==5==5==0==4====4====|
E|----------------3==----------------------3==------2====2====|

Lead guitar second solo

E|----------------------------7h10p7-7h10-10b12-10p9p7\5/7~~~|
B|------------------------5/7--------------------------------|
G|-2===2(tremolo bend)2~~~-----------------------------------|
D|-----------------------------------------------------------|
A|-----------------------------------------------------------|
E|-----------------------------------------------------------|

E|----------7-9-10-12-14-15-17/19-19~~~------------------------|
B|---7-8-10----------------------------------------------------|
G|-9-----------------------------------------------------------|
D|-------------------------------------------------------------|
A|-------------------------------------------------12-14-14-15-|
E|-------------------------------------12-14-14-15-------------|

E|-------------------------------------------------------|
B|----------------------------------19-20-21-------------|
G|-------------14-15-16/19-19-20-21----------21-21-19-19-|
D|-12-12-14/16-------------------------------------------|
A|-------------------------------------------------------|
E|-------------------------------------------------------|

E|-------------------------------7-9-10-12-14~~~12-14p12p10-9-7~|
B|--------------------------------------------------------------|
G|-16-16-14-14--------------------------------------------------|
D|-------------16-16-14-14\12-----------------------------------|
A|----------------------------14--------------------------------|
E|--------------------------------------------------------------|

E|-/19-/17-15-17----------14h15h17-17p15p14-------------|
B|---------------14h15h17-------------------17p15p14----|
G|---------------------------------------------------16-|
D|------------------------------------------------------|
A|------------------------------------------------------|
E|------------------------------------------------------|

E|----------14h15h17-17p15p14-------------------------------|
B|-14h15h17-------------------17p15p14-------------14-15----|
G|-------------------------------------16p15p14-------------|
D|----------------------------------------------16-------16-|
A|----------------------------------------------------------|
E|----------------------------------------------------------|

E|-------------------------------------------------------------|
B|-15-14-15----15-14-15----15-14-12----------12-14-15-10b12-12-|
G|----------------------------------14-12-11-------------------|
D|----------16----------16-------------------------------------|
A|-------------------------------------------------------------|
E|-------------------------------------------------------------|

E|----------------------------------------------------------------|
B|-11p9\7---------------------------------------------------------|
G|--------9-7h9p7-------------------------------------------------|
D|----------------7h9p7\5--------------------------------14p13p12-|
A|------------------------7~-------------7----7h10/12/14----------|
E|---------------------------7-9-10-9-10---10---------------------|

E|------------------------------------------------------/19~18b19-|
B|---------------------------------------------------14~----------|
G|------------------------------------------14h15h16--------------|
D|-------------------14h15h16------14h15h16-----------------------|
A|-14p12h14-14h15h16----------14~~~-------------------------------|
E|----------------------------------------------------------------|

E|-14h15h17/19-14h15h17/19\17p15p14h15h17/19\17----------------14-|
B|----------------------------------------------17p15p14h15h17----|
G|----------------------------------------------------------------|
D|----------------------------------------------------------------|
A|----------------------------------------------------------------|
E|----------------------------------------------------------------|

E|------------------------------------|
B|-17p15p14h15h17-15p14p12\10b12~~~~~~|
G|------------------------------------|
D|------------------------------------|
A|------------------------------------|
E|------------------------------------|

End solos

then play the second part of the intro once
then the prechorus once
then the chorus six times

-outro solos (over last choruses)-

1
E|----------------------(7)-(10)-----|
B|-10b12-10h12p10\7-(5)----------(5)-|
G|-----------------------------------|
D|-----------------------------------|
A|-----------------------------------|
E|-----------------------------------|

2
E|----------------17-(19)-|
B|------------------------|
G|-14-14-14-14-14---------|
D|------------------------|
A|------------------------|
E|------------------------|

3
E|-17b19-17-15-14----------------|
B|----------------17-15-14-------|
G|-------------------------16~~~~|
D|-------------------------------|
A|-------------------------------|
E|-------------------------------|

4
E|-------/17~~~~~~|
B|----------------|
G|-2b4r2----------|
D|----------------|
A|----------------|
E|----------------|

5
E|-------------------------------------------------|
B|-22-19-19-19-19-22-19-19-19-19-22-19-19-19-19-24-|
G|-------------------------------------------------|
D|-------------------------------------------------|
A|-------------------------------------------------|
E|-------------------------------------------------|

6
E|-19-19-17-15-------------------19-17-15-------------------|
B|-------------19-17-15-19-17-15----------19-17-19-17-15----|
G|-------------------------------------------------------16~|
D|----------------------------------------------------------|
A|----------------------------------------------------------|
E|----------------------------------------------------------|

7
E|-24-22-19-19h21p19-21~~|
B|-----------------------|
G|-----------------------|
D|-----------------------|
A|-----------------------|
E|-----------------------|

-key to tab-
h=hammeron
p=pull of
b=bend
r=release
()=pinch harmonic
==let ring
~=vibrato
x=palm mute
/=slide up
\=slide down

thats it.  I spent a long damn time working on this tab, enjoy it!
~shredder
Suggest correction
What's this?
You can suggest a correction to this tab. Community and Mods will review your correction and vote to approve or reject it.
comments
print report bad tab
2 comments total.
0 reply
TheTrooper5 279 wrote on February 16 2007, 04:07 pm

great tab!

0 reply
420ismybday 118 wrote on March 16 2010, 04:49 pm

for your hard work man you get 5 *'s. thnx for tabbing a gr8 song.

guest
You may want to rate the tab now too:
select rating
Please do not post tabs as comments. Select "correction" instead!