Oops, an error
Loading. Please wait.

Private Property Tab

version 1
version 1

Whole song

Interactive

1,412 views 3 this week
no commentswrite comment
1 2 3 4 5
please rate
add to favorites
launch autoscroll
font size
0
reset
how to read this tab
guitar tuner
Autoscroll
slow
fast
+/-
esc
set tempo
stop
Help us to improve Ultimate-Guitar.com Take our survey!
×
Difficulty
intermediate
Band : Judas priest
song: Private Property 
album : turbo

Tunning E A D G B E
guitars: glenn and kk 
musica : Glenn Tipton / Rob Halford / K.K. Downing

Intro  rifff

|----------------3-----2----------3--|-----2----------------3-----|
|----------------3-----3----------3--|-----3----------------3-----|
|----------------0-----2---2------0--|-----2------2---------0-----|
|---2----------------------2---------|------------2---------------|
|---2------x--x-----------(0)--x-----|-----------(0)-----x--------|
|---0--------------------------------|----------------------------|

|--2----------3-----2--------|-------------|
|--3----------3-----3--------|-------------|
|--2---2------0-----2-----2--|-------------|
|------2------------------2--|-------------|
|-----(0)--x--------------0--|-------------|
|----------------------------|----0--3--0--|

|-------3----2----------3--|-----2---------------3----|--2----------3----2--------|
|-------3----3----------3--|-----3---------------3----|--3----------3----3--------|
|--2----0----2---2------0--|-----2-----2---------0----|--2---2------0----2-----2--|
|--2-------------2---------|-----------2--------------|------2-----------------2--|
|--0------------(0)--x-----|----------(0)-----x-------|-----(0)--x-------------0--|
|--------------------------|--------------------------|---------------------------|

|------------------------|--------|
|------------------------|--------|
|----------2-------------|--2-----|
|----------2-------------|--2-----|
|----------0-------------|--0-----|
|----0--3-------0--3--0--|--------|
    
(Clean)                
Verse riff                         
|---------------------|-------------------|
|---------------1-----|---------------1---|
|-----------2---------|-----------2-------|
|-------2-------------|-------2-----------|
|--(0)----------------|--(0)--------------|
|---------------------|-------------------|

|-------------------------|------------------------|
|-------------3--------3--|---------------3--------|  (X3)
|----------2--------------|--------2---------------|
|-------0-----------0-----|-----0-----(0)----------|
|--(0)--------------------|-------------------3~---|
|-------------------------|------------------------|

After ply the verse riff play the next riff 
|---------------------|-------------------|----------------|
|---------------1-----|---------------1---|------------3---|
|-----------2---------|-----------2-------|---------2------|
|-------2-------------|-------2-----------|------0---------|
|--(0)----------------|--(0)--------------|--(0)-----------|
|---------------------|-------------------|----------------|

Pre chorus riff 
|-------------------------------|
|-------------------------------|
|---------7-----7-----7--7S--5--|
|---------7-----7-----7--7S--5--|
|---------5-----5-----5--5S--3--|
|-------------------------------|

|---------------------------|--------------------------|----------|---------------------------|
|---------------------------|--------------------------|--6-------|---------------------------|
|-----------------7--7S--2--|--------------------------|--5---5---|-----5--5p--4--4--------5--|
|-----------------7--7S--2--|--------------------------|--3---5---|--5--=====--------7--5--5--|
|--3--3--3--3--3--5--5S--0--|--0--0--0--0--0--0--------|--3---3---|------------------5--5--3--|
|---------------------------|--------------------3--0--|----------|---------------------------|

|---------------------------|--------------------------|-------------|---------|
|---------------------------|--------------------------|--6----------|--0------|
|-----------------7--7S--2--|--------------------------|--5-----5----|--0------|
|-----------------7--7S--2--|--------------------------|--3-----5----|--0------|
|--3--3--3--3--3--5--5S--0--|--0--0--0--0--0--0--------|--3-----3----|--2------|
|---------------------------|--------------------3--0--|-------------|--3------|

Chorus riff

|------------|--3-----2-----|---------|--3------2-----|-------3---2---|
|------------|--3-----3-----|---------|--3------3-----|-------3---3---|
|--2---------|--0-----2-----|--2------|--0------2-----|--2----0---2---|
|--2---------|--0-----0-----|--2------|--0------0-----|--2----0---0---|
|--0---------|--------------|--0------|---------------|--0------------|
|------------|--------------|---------|---------------|---------------|

Brideg
 
|------------------------|
|------------------------|
|-5--5--5----3----5------|
|-5--5--5----3----5------|
|-3--3--3----1----3------|
|------------------------|


.  - palm mute           /  - slide up to
\  - slide down to       ~  - vibrato
h  - hammer on           b  - Bend
p  - pull off            Suffixes for bend
t  - tap                 f  - full bend    h - half bend
ph - pinched harmonic    q  - quarter bend t - tap bend
*  - see comment         ^  - Hold bend    r release bend
x  - Stuccatto           ~  - vibrato bend
,  - slight palm mute    () - ghost note, sustained note
"  - tremolo note        <> - Tril
Suggest correction
Give kudos to tab author, rate the tab!
1 2 3 4 5
comments
print report bad tab
guest
You may want to rate the tab now too:
select rating
Please do not post tabs as comments. Select "correction" instead!