Oops, an error
Loading. Please wait.

Prophecy Bass Tab

version 1
version 1

Whole song

Interactive

894 views 1 this week
no commentswrite comment
1 2 3 4 5
1 last vote to show rating
add to favorites
launch autoscroll
font size
0
reset
guitar tuner
Autoscroll
slow
fast
+/-
esc
set tempo
stop
Help us to improve Ultimate-Guitar.com Take our survey!
×
Difficulty
novice
THE MAIN RIFF AND CHORUS
G---------------------------------------|
D---------------------------------------|
A--2--2--2--4--5--2--2--2--2--2--2---1--|
E--0--0--0--2--3--0--0--0--0--0----0----|

VERSE
G------------------------------------------|
D------------------------------------------|
A------------------------------------------|
E--0--0--0--2--3--0--0--0--0--0--0--2--3---|

PRE CHORUS repeat 4x
G--------------------------|
D--------------------------|
A--2~~~~~~~~~~~~~-1~~~~----|
E-----------------------0--|

     I AM NOSTRADAMUS!
G---------------------------------------|
D---------------------------------------|
A--------------------------------2---1--|
E--0--0--0--2--3--0--0--0--0--0----0----|
Suggest correction
Give kudos to tab author, rate the tab!
1 2 3 4 5
comments
print report bad tab
guest
You may want to rate the tab now too:
select rating
Wanna post a correction for this tab? Suggest correction