Oops, an error
Loading. Please wait.

Prophecy Tab

version 1
version 1

Whole song

Interactive

6,181 views 3 this week
1 commentread comment
1 2 3 4 5
2 more votes to show rating
add to favorites
launch autoscroll
font size
0
reset
how to read this tab
guitar tuner
Autoscroll
slow
fast
+/-
esc
set tempo
stop
Help us to improve Ultimate-Guitar.com Take our survey!
×
Author
Difficulty
intermediate
-------------------------------------------------------------------------------
                             Judas Priest - Prophecy
-------------------------------------------------------------------------------
Tabbed by: Rroni-DT

Tuning: Standard

Riff 1 (x2)
e|---------------------------------------------------------------------------|
B|---------------------------------------------------------------------------|
G|---------------------------------------------------------------------------|
D|---------------------------------------------------------------------------|
A|-2-2--4-5-2--222222---8-7-5-2-----2--2--4-5-2--222222---8-7-5-2------------|
E|-0-0--2-3-0--000000---6-5-3-0-----0--0--2-3-0--000000---6-5-3-0------------|

Riff 2 (x6)                      Riff 3 (x2)
e|---------------------------|------------------------------------------------|
B|---------------------------|------------------------------------------------|
G|---------------------------|------------------------------------------------|
D|---------------------------|------------------------------------------------|
A|-2-2--4-5-2--222222--------|----8-7-5-2-------------------------------------|
E|-0-0--2-3-0--000000--------|----6-5-3-0-------------------------------------|

Riff 4 (X2)
e|---------------------------------------------------------------------------|
B|---------------------------------------------------------------------------|
G|---------------------------------------------------------------------------|
D|---------------------------------------------------------------------------|
A|-9--99999--8-3-------9--99999--8-3-----------------------------------------|
E|-7--77777--6-1-------7--77777--6-1-----------------------------------------|

- Repeat "Riff 1" (x2)
- Then "Riff 2"   (x8)
- Then "Riff 4"   (x2)
- Then Again "Riff 1" (X2)

Riff 5 (x2)
e|---------------------------------------------------------------------------|
B|---------------------------------------------------------------------------|
G|---------------------------------------------------------------------------|
D|---------------------------------------------------------------------------|
A|-5--5-7-8-5555555555--------5--5-7-8-5555555555----------------------------|
E|-3--3-5-6-3333333333--------3--3-5-6-3333333333----------------------------|

Riff 6(x2)
e|---------------------------------------------------------------------------|
B|---------------------------------------------------------------------------|
G|---------------------------------------------------------------------------|
D|---------------------------------------------------------------------------|
A|------3--3-2--------3--3-2----------3--3-2---------------------------------|
E|-2--2--2-------2--2--2---------2--2--2-------------------------------------|

- Solo enters..

When solo Ends , Riff 7 (x8)

e|---------------------------------------------------------------------------|
B|---------------------------------------------------------------------------|
G|---------------------------------------------------------------------------|
D|---------------------------------------------------------------------------|
A|-2-2-2--4-5----------------------------------------------------------------|
E|-0-0-0--2-3----------------------------------------------------------------|

- Repeat Several Times "Riff 1"
- Then Repeat Several Times "Riff 5"

End.

| /  slide up
| \  slide down
| h  hammer-on
| p  pull-off
| ~  vibrato
| +  harmonic
| x  Mute note
===============================================================================
Suggest correction
Give kudos to tab author, rate the tab!
1 2 3 4 5
comments
print report bad tab
1 comment total.
0 reply
B4zooka Joe 16 Aug 17, 2008 05:54 PM

It ain't right at all.

guest
You may want to rate the tab now too:
select rating
Wanna post a correction for this tab? Suggest correction