Oops, an error
Loading. Please wait.

Prophecy Tab

version 2
version 2

Whole song

Interactive

10,627 views 3 this week
1 commentread comment
1 2 3 4 5
accurate
x 5
add to favorites
launch autoscroll
font size
0
reset
how to read this tab
guitar tuner
Autoscroll
slow
fast
+/-
esc
set tempo
stop
Help us to improve Ultimate-Guitar.com Take our survey!
×
Author
Difficulty
H=hammer on
P=Pull off
*=Palm mute
/=Slide into

Standard tuning EADgbe

A-Intro
                                 x4
e--------------------------------+
b--------------------------------+
g-----------------------------4-3+
D--2-2-2-4-5-2-2*-2*-2*-2*-2*-4-3+
A--2-2-2-4-5-2-2*-2*-2*-2*-2*-2-1+
E--0-0-0-2-3-0-0*-0*-0*-0*-0*----+

B-Verse(a)
                                         play this 3 times (1st-3rd endings)
e---------------------------------------+
b---------------------------------------+
g---------------------------------------+
D-2-2-2-4-5-2-2*-2*-2*-2*-2*-2*-2*-2*-2*+
A-2-2-2-4-5-2-2*-2*-2*-2*-2*-2*-2*-2*-2*+
E-0-0-0-2-3-0-0*-0*-0*-0*-0*-0*-0*-0*-0*+

On the forth you do (4th ending)

e-------------------------------+
b-------------------------------+
g----------------------------4-3+
D-2-2-2-4-5-2-2*-2*-2*-2*-2*-4-3+
A-2-2-2-4-5-2-2*-2*-2*-2*-2*-2-1+
E-0-0-0-2-3-0-0*-0*-0*-0*-0*----+

Now repeat the Verse(a) again

C-Verse(b)
                                 play this the first time (1st ending)
e------------------+ ------------+
b------------------+ ------------+
g------------------+ ------------+
D----4-4-4-4-3-2---+ -4-4-4-4-3--+
A-0*-2-2-2-2-1-2-0*+ -2-2-2-2-1-3+
E--------------0---+ -----------1+

on the second do this (2nd ending)

e----------------------+
b----------------------+
g----------------------+
D-4-4*-4*-4*-4*-4*-4*-3+
A-2-2*-2*-2*-2*-2*-2*-1+
E----------------------+

D-Chorus

Do Intro [A]

E-Verse(a)

Do Verse(a) [B]

F-Verse(b)

Do Verse(b) [C]

G-Chorus

Do Intro [A]

H-Verse(c)
                                             x3
e--------------------------------------------+
b--------------------------------------------+
g--------------------------------------------+
D--------------------------------------------+
A-5-5-5-7-8-5-5*-5*-5*-5*-5*-5*-5*-5*-5*-5*-5+
E-3-3-3-5-6-3-3*-3*-3*-3*-3*-3*-3*-3*-3*-3*-3+

I-Instrumental passage (im not sure about this one it was hard to hear the rhythm guitar 
the lead)
                            x3
e---------------------------+
b---------------------------+
g---------------------------+
D-2-5/4----5/4--5/4--------2+
A-2-3/2-0*-3/2--3/2--------2+
E-0------------0---0*-3-2*-0+

J-Solo

RHYTHM PART
e----------------------------------+
b----------------------------------+
g----------------------------------+
D----------------------------------+
A-6-6*-6*-6*-6*-6*-6*-7/6----7/6/10+
E-4-4*-4*-4*-4*-4*-4*-5/4-0*-5/4/8 +

K-Harmony

RHYTHM PART
e---------------------+
b---------------------+
g---------------------+
D-2-4-5-7-12-2-4-5-7-4+
A-2-4-5-5-10-2-4-5-5-2+
E-0-2-3------0-2-3----+

HARMONY(something like this not exact)
e---------------------------------------19-17-15-15-19-17h19p17-17-15-14-14-15-|
b-17-20-19-17-17-20-19h20-19-17-15-19-17---------------------------------------|

L-Narrative

D-2-2-2----+
A-2-2-2-4-5+
E-0-0-0-2-3+

M-Chorus

Do Intro [A]

N-End Verse

Do Verse(c)[H]
Suggest correction
What's this?
You can suggest a correction to this tab. Community and Mods will review your correction and vote to approve or reject it.
comments
print report bad tab
1 comment total.
0 reply
CinderellaFan14 579 wrote on April 6 2012, 01:44 am

Really love this song! Perfect tab, thanks so much! 5 stars!

guest
You may want to rate the tab now too:
select rating
Please do not post tabs as comments. Select "correction" instead!