Oops, an error
Loading. Please wait.

Prophecy Tab

version 3
version 3

Whole song

Interactive

1,570 views 1 this week
no commentswrite comment
1 2 3 4 5
please rate
add to favorites
launch autoscroll
font size
0
reset
how to read this tab
guitar tuner
Autoscroll
slow
fast
+/-
esc
set tempo
stop
Help us to improve Ultimate-Guitar.com Take our survey!
×
Author
Difficulty
hvymtlgds 130
intermediate
A-Intro
                                 x4
e--------------------------------+
b--------------------------------+
g-----------------------------4-3+
D--2-2-2-4-5-2-2*-2*-2*-2*-2*-4-3+
A--2-2-2-4-5-2-2*-2*-2*-2*-2*-2-1+
E--0-0-0-2-3-0-0*-0*-0*-0*-0*----+

B-Verse(a)
                                         play this 3 times (1st-3rd endings)
e---------------------------------------+
b---------------------------------------+
g---------------------------------------+
D-2-2-2-4-5-2-2*-2*-2*-2*-2*-2*-2*-2*-2*+
A-2-2-2-4-5-2-2*-2*-2*-2*-2*-2*-2*-2*-2*+
E-0-0-0-2-3-0-0*-0*-0*-0*-0*-0*-0*-0*-0*+

On the forth you do (4th ending)

e-------------------------------+
b-------------------------------+
g----------------------------4-3+
D-2-2-2-4-5-2-2*-2*-2*-2*-2*-4-3+
A-2-2-2-4-5-2-2*-2*-2*-2*-2*-2-1+
E-0-0-0-2-3-0-0*-0*-0*-0*-0*----+

Now repeat the Verse(a) again

C-Verse(b)
                                 play this the first time (1st ending)
e------------------+ ------------+
b------------------+ ------------+
g------------------+ ------------+
D----4-4-4-4-3-2---+ -4-4-4-4-3--+
A-0*-2-2-2-2-1-2-0*+ -2-2-2-2-1-3+
E--------------0---+ -----------1+

on the second do this (2nd ending)

e----------------------+
b----------------------+
g----------------------+
D-4-4*-4*-4*-4*-4*-4*-3+
A-2-2*-2*-2*-2*-2*-2*-1+
E----------------------+

D-Chorus

Do Intro [A]

E-Verse(a)

Do Verse(a) [B]

F-Verse(b)

Do Verse(b) [C]

G-Chorus

Do Intro [A]

H-Verse(c)
                                             x3
e--------------------------------------------+
b--------------------------------------------+
g--------------------------------------------+
D--------------------------------------------+
A-5-5-5-7-8-5-5*-5*-5*-5*-5*-5*-5*-5*-5*-5*-5+
E-3-3-3-5-6-3-3*-3*-3*-3*-3*-3*-3*-3*-3*-3*-3+

I-Instrumental passage -- I am only printing what Glenn does because I have watched him 
about 4 times now from the front row
this is 3X
e------------------------------+
b------------------------------+
g-2------------------------2---+
D---4------------4---------2-4-+
A-----2-5-4-2------5-2-4-2-4-4-+
E--------------2-------------2-+

This last one Glenn cuts it short and vibratos the F# note as he enters the solo
e--------------------------------+
b--------------------------------+
g--------------------------------+
D------4-------------------------+
A--------5-2-4-2-----------------+
E----2-----------2~~~~~~~~~~~~~~~+

J-Solo

RHYTHM PART
e----------------------------------+
b----------------------------------+
g----------------------------------+
D----------------------------------+
A-6-6*-6*-6*-6*-6*-6*-7/6----7/6/10+
E-4-4*-4*-4*-4*-4*-4*-5/4-0*-5/4/8 +

K-Harmony


Once again Glenn and KK split lead the Harmony

KK runs the med register for the solo

e--------------------------------------------+   x2
b-17-20-19-17-17-20-19h20-19-17-15---12------+
g--------------------------------------------+
d--------------------------------------------+
a--------------------------------------------+
e--------------------------------------------+

Glenn starts the low and advances to the higher portion (this sounds really cool live if 
play it with two people so grab a buddy)

e-------------------------------------------12-+
b------------------------------------578-------+
g----------------------------------------------+
d--2-5-4-2-2-5-4h5p4-2-0---------245-----------+
a------------------------2---245---------------+
e----------------------------------------------+


e---19-17-15-15-19-17h19p17-15-14-15---------+ and decending run
b--------------------------------------------+
g--------------------------------------------+
d--------------------------------------------+
a--------------------------------------------+
e--------------------------------------------+

L-Narrative

D-2-2-2----+
A-2-2-2-4-5+
E-0-0-0-2-3+

M-Chorus

Do Intro [A]

N-End Verse

Do Verse(c)[H]

Also this is STD tuning for the Album but Judas Priest now tunes in Eb for live shows ( 
you learn backstage with them)  hvymtlgds
Suggest correction new What's this?
You can suggest a correction to this tab. Community and Mods will review your correction and vote to approve or reject it.
comments
We did not receive enough feedback on this tab! Please rate:
print report bad tab
1 2 3 4 5
guest
You may want to rate the tab now too:
select rating
Please do not post tabs as comments. Select "correction" instead!