Oops, an error
Loading. Please wait.

Race With The Devil Bass Tab

version 1
version 1

Whole song

Interactive

436 views 1 this week
no commentswrite comment
1 2 3 4 5
x 3
add to favorites
launch autoscroll
font size
0
reset
guitar tuner
Autoscroll
slow
fast
+/-
esc
set tempo
stop
Help us to improve Ultimate-Guitar.com Take our survey!
×
Judas Priest - Race With The Devil (1977)
Tabbed By: Jon Malmin (jogusmal@hotmail.com)
Tuning: Standard E, slightly flat (A=437 Hz)

This is a laughably easy song on bass, there are only three separate parts to play.
Here they are...

Intro (play this twice):
G||-------|-------|-------|-------||
D||*------|-------|-------|------*||
A||*-5----|--3----|--1----|--0---*||
E||-------|-------|-------|-------||

Play this during every verse and Glenn's solos:
G||---------------------|-----------------------|
D||---------------------|-----------------------|
A||-5--5-5--5-5--5-5--5-|-5--5-5--5-5--5-5--5-5-|
E||---------------------|-----------------------|

G|---------------------|-----------------------||
D|---------------------|-----------------------||
A|-3--3-3--3-3--3-3--3-|-5--5-5--5-5--5-5--5-5-||
E|---------------------|-----------------------||

This is the chromatic riff which appears twice in this song:
G||----|-----|-----|-----|-----|-----|-----|-----|-----||
D||----|-----|-----|-----|-----|-----|-----|-----|-----||
A||-0--|--1--|--2--|--3--|--4--|--5--|--1--|--0--|--0--||
E||----|-----|-----|-----|-----|-----|-----|-----|-----||

That's it!
Suggest correction
Give kudos to tab author, rate the tab!
1 2 3 4 5
comments
print report bad tab
guest
You may want to rate the tab now too:
select rating
Wanna post a correction for this tab? Suggest correction