Oops, an error
Loading. Please wait.

Race With The Devil Tab

version 1
version 1

Whole song

Interactive

8,419 views 9 this week
1 commentread comment
1 2 3 4 5
x 3
add to favorites
launch autoscroll
font size
0
reset
how to read this tab
guitar tuner
Autoscroll
slow
fast
+/-
esc
set tempo
stop
Help us to improve Ultimate-Guitar.com Take our survey!
×
Author
Difficulty
intermediate
tuning:standard
tabbed by: shredder
artist: Judas priest
song: Race with the devil
album: Sin after sin (remastered)
year: 2001 (1977)

This is the bonus studio track on the remastered Priest album "Sin after sin"

Intro (both guitars)
E|-----------------------------------------|
B|-----------------------------------------|
G|-7====5====3====2====5====5====3====2====|
D|-7====5====3====2====5====5====3====2====|
A|-5====3====1====0====7====3====1====0====|
E|-----------------------------------------|

Pre-verse (rhythm guitar)
E|-----------------------------------------------|
B|-----------------------------------------------|
G|-7-7---7-7---7-7---7-7---5-5---5-5---7-7---7-7-|
D|-7-7---7-7---7-7---7-7---5-5---5-5---7-7---7-7-|
A|-----5-----5-----5-----3-----3-----5-----5-----|
E|-----------------------------------------------|
Play this twice

Pre-verse (lead guitar)
E|-10-8-------------10-8-------------10-8----------------|
B|------10-8-------------10-8-------------10-8---------8-|
G|-----------10-7-------------10-7-------------10-9-10---|
D|-------------------------------------------------------|
A|-------------------------------------------------------|
E|-------------------------------------------------------|

E|--------------------------|
B|--------------------------|
G|-10-9-10-7-10-9-10-9-5-7==|
D|--------------------------|
A|--------------------------|
E|--------------------------|

Verse (both guitars)
E|------------------------------------------------------------|
B|------------------------------------------------------------|
G|-7-7--7--7-7-7--7-7--7--7-7-7--5-5--5--5-5-5--7-7--7--7-7-7-|
D|-7-7--7--7-7-7--7-7--7--7-7-7--5-5--5--5-5-5--7-7--7--7-7-7-|
A|------------------------------------------------------------|
E|------------------------------------------------------------|
Play this twice

then go back to the preverse and play that twice
then verse 2x

Bridge (rhythm guitar)
E|-------------------------------------|
B|-------------------------------------|
G|-2===3===4===5===6===7===3===2===2===|
D|-2===3===4===5===6===7===3===2===2===|
A|-0===1===2===3===4===5===1===0===0===|
E|-------------------------------------|
Play once

Bridge (lead guitar)
E|-17-17-19-21-17-18p17-------------------------------------|
B|----------------------18-15-11-13-13-15-17-13-14-15-17-14-|
G|----------------------------------------------------------|
D|----------------------------------------------------------|
A|----------------------------------------------------------|
E|----------------------------------------------------------|

E|-------------------------18--------------------------14-16-17-|
B|-15-17-18-14-15-17-18-15----18-15-11-11--11-13-15-18----------|
G|--------------------------------------------------------------|
D|--------------------------------------------------------------|
A|--------------------------------------------------------------|
E|--------------------------------------------------------------|

Pre-verse 2x
Verse 2x
Bridge 1x

then Rhythm guitar plays the Pre-verse rhythm figure until the end.

Lead guitar outro solo
E|-13-12-----------------------------------------------------|
B|-------15-13-15--15-14b15-15-16-15-14b15-15-14b15-15-15-13-|
G|-----------------------------------------------------------|
D|-----------------------------------------------------------|
A|-----------------------------------------------------------|
E|-----------------------------------------------------------|

E|------------------------------------------------------|
B|------------------------------------------------------|
G|-14-12-10b12-9h10p9-7-5h7p5-5h7p5-5h7p5-5h7p5-/10-9-7-|
D|------------------------------------------------------|
A|------------------------------------------------------|
E|------------------------------------------------------|

E|------------------------------------------------------10----10-10~|
B|---------------------------------------------------13----13-------|
G|-9h10p9/14-14-14-14-14\9h10p9-9h10p9-9h10p9-9h10p9----------------|
D|------------------------------------------------------------------|
A|------------------------------------------------------------------|
E|------------------------------------------------------------------|

E|-13p12h13p12h13p12h13p12h13p12h13p12-16b17-12h13p12-10-|
B|-------------------------------------------------------|
G|-------------------------------------------------------|
D|-------------------------------------------------------|
A|-------------------------------------------------------|
E|-------------------------------------------------------|

E|-8/10-8/10-8/10-8/10-11b13-11~12-11-10-11-10-9-10-9-8-----------------|
B|------------------------------------------------------10-9-8----------|
G|-------------------------------------------------------------10-9-8-7-|
D|----------------------------------------------------------------------|
A|----------------------------------------------------------------------|
E|----------------------------------------------------------------------|

E|----------------------5h8p5---5h8p5---5h8p5---5h8p5---|
B|-------------6p5-8b10-------8-------8-------8-------8-|
G|-7-7-5-7-7p5------------------------------------------|
D|------------------------------------------------------|
A|------------------------------------------------------|
E|------------------------------------------------------|

E|-5h8p5-5h8p5-5h8p5-5h8p5/10~10p8----10~10p8----10~10p8----10-10-10-10~|
B|---------------------------------10---------10---------10-------------|
G|----------------------------------------------------------------------|
D|----------------------------------------------------------------------|
A|----------------------------------------------------------------------|
E|----------------------------------------------------------------------|

E|-10p8---------------------------------------------------|
B|------10-8h10p8-8h10p8-8h10p8-8h10p8--------------------|
G|-------------------------------------9h10p9-9h10p9-10-7~|
D|--------------------------------------------------------|
A|--------------------------------------------------------|
E|--------------------------------------------------------|

then just finish with the regular lead guitar preverse part

thats it.  Great song for beggining metal fans who want a cool solo to work on.  I heard
this song is one of the earliest recorded priest songs ever.  I think it was recorded
by the band in the late sixties so anyone who wants to get a hold of early priest 
should grab the remastered album because this is great. Enjoy!

~shredder
Suggest correction
Give kudos to tab author, rate the tab!
1 2 3 4 5
comments
print report bad tab
1 comment total.
0 reply
guitarman108 116 Jan 18, 2010 03:11 PM

great tab! this song was actually 1st recorded by a band called Gun in the late 60s, that band had some resembelence to Cream, but for some reason they never really caught on.

guest
You may want to rate the tab now too:
select rating
Wanna post a correction for this tab? Suggest correction