Oops, an error
Loading. Please wait.

Ram It Down Tab

version 2
version 2

Whole song

3,622 views 3 this week
no commentswrite comment
1 2 3 4 5
x 3
add to favorites
×
Save as Personal and add changes to this tab that will be seen only by you. Learn more ›
×
You can save this tab as Personal to edit and correct it or add notes. All changes will be seen only by you. Learn more »
save as personal
new!
launch autoscroll
font size
0
reset
how to read this tab
guitar tuner
Autoscroll
slow
fast
+/-
esc
set tempo
stop
Difficulty
advanced
Band:  Judas Priest
Album: Ram It Down
Song:  Ram It Down

Tunning E A D G B E
guitars: glenn and kk 
musica : Glenn Tipton / Rob Halford / K.K. Downing

[Intro  rifff]
e|---------------------------------------------------|
B|---------------------------------------------------|
G|---------------------------------------------------|
D|---------------------5-----------------------7-7-5-|
A|-----7---5---7---5-----7-----7---5---7---5---------|
E|-0-0---0---0---0---0-----0-0---0---0---0---0-------|( 3 X)

[Main riff]
e|--------------------------|------------------------|
B|--------------------------|------------------------|
G|--------------------------|--5---------------------|
D|--5h--7--7--7----7--7--7--|--5----7--7----7--7--7--|
A|--0---------0----0--0--0--|--0----0--0----0--0--0--|
E|--------------------------|------------------------|

e|-------------------------|----------------------------|-------------------------|
B|-------------------------|----------------------------|-------------------------|
G|-------------------------|---------------5p--0--------|-------------------------|
D|--5h--7--7--7---7--7--7--|--7p--5--------5p--0--7--7--|--5h--7--7--7---7--7--7--|
A|--0---------0---0--0--0--|--7p--5--0--0---------7--7--|--0---------0---0--0--0--|
E|-------------------------|----------------------------|-------------------------|

e|------------------------|-----------------------------|
B|------------------------|-----------------------------|
G|--5---------------------|---------------------7br--=--|
D|--5----7--7----7--7--7--|--5h--7--7--7--L--7--7br--=--|
A|--0----0--0----0--0--0--|--0------L--0--L--0----------|
E|------------------------|-----------------------------|

e|--------------------------|------------------------|
B|--------------------------|------------------------|
G|--------------------------|--5---------------------|
D|--5h--7--7--7----7--7--7--|--5----7--7----7--7--7--|
A|--0---------0----0--0--0--|--0----0--0----0--0--0--|
E|--------------------------|------------------------|

e|-------------------------|----------------------------|
B|-------------------------|----------------------------|
G|-------------------------|---------------5p--0--------|
D|--5h--7--7--7---7--7--7--|--7p--5--------5p--0--7--7--|
A|--0---------0---0--0--0--|--7p--5--0--0---------7--7--|
E|-------------------------|----------------------------|
   
e|--------------------------|------------------------|----------------------|------------|
B|--------------------------|------------------------|----------------------|------------|
G|--------------------------|--5---------------------|--------0---------0---|------------|
D|--5h--7--7--7----7--7--7--|--5----7--7----7--7--7--|-----2---------0------|------------|
A|--0---------0----0--0--0--|--0----0--0----0--0--0--|--3---------2---------|--5----5----|
E|--------------------------|------------------------|----------------------|--3----2----|

[Intro solo 1]
 Glenn guitar
e|--------------|---------|---------------|--20----~----|
B|--------------|--20~----|---17--20--17--|-------------|
G|-----19h--21--|---------|---------------|-------------|
D|--------------|---------|---------------|-------------|
A|--------------|---------|---------------|-------------|
E|--------------|---------|---------------|-------------|

             ^    ^   ^    ^      ^     ^    ^   ^    ^    ^    ^    ^    
                                                 |---------5---------|    
e|--------20p--17-----------|------------------------------------------|
B|-----------------20p--17--|--20----17h--20--17h--20p--17h--22p--17h--|
G|--------------------------|------------------------------------------|
D|--------------------------|------------------------------------------|
A|--------------------------|------------------------------------------|
E|--------------------------|------------------------------------------|

    ^   ^    ^   ^    ^   ^    ^   ^    ^      ^                   
    |--------5--------|                      
e|------------------------------------------|-------------------|
B|--20--17h--20--20p--17--22p--20--17h--20--|--17~------=\------|
G|------------------------------------------|-------------------|
D|------------------------------------------|-------------------|
A|------------------------------------------|-------------------|
E|------------------------------------------|-------------------|

[Verse riff]
e|---------------------------------------------|
B|---------------------------------------------|
G|-7/9---9---9-7-9-9--9---/12-\9---9---5----7--|
D|-7/9---9---9-7-9-9--9---/12-\9---9---5----7--|
A|-5/7---7---7-5-7-7--7---/10-\7---7---3----5--|
E|---------------------------------------------|

e|--------------------------------------|
B|--------------------------------------|
G|-7/9---9--9-/12--\9---9---7---5----7--|
D|-7/9---9--9-/12--\9---9---7---5----7--|
A|-5/7---7----/10--\7---7---5---3----5--|  
E|--------------------------------------| Rpt (x2)

[Pre chorus riff]
e|--------------------------------------------------------------|
B|--------------------------------------------------------------|
G|-2--------------------2------5--------------------------------|
D|-2------3------5------2------5------3------3---5---3---2------|
A|-0------3------5------0------3------3------3---5---3---2------|
E|--------1------3--------------------1------1---3---1---0------|

e|-----------------------------------------------------|
B|-----------------------------------------------------|
G|-2--------------------2------------------------------|
D|-2------3------5------2------3------5------2---(2)---|
A|-0------3------5------0------3------5------2---(2)---|
E|--------1------3-------------1------3------0---(0)---|

[Chorus riff]
e|-----------------------|-----------------|--------------|--------|
B|-----------------------|-----------------|--------------|--------|
G|-----------------------|-----------------|--------------|--2-----|
D|--7--5--7----7--7--5---|-----------------|--------------|--2-----|
A|--7--5--7----7--7--5---|--3----2----0----|----------3---|--0-----|
E|--5--3--5----5--5--3---|-----------------|--3---0-------|--------|

e|-----------------------|----------------|--------------|--0------|
B|-----------------------|----------------|--------------|--0------|
G|-----------------------|----------------|--------------|--0------|
D|--7--5--7----7--7--5---|----------------|--------------|--2------|
A|--7--5--7----7--7--5---|------0----3----|---2---0------|--2------|
E|--5--3--5----5--5--3---|--1-------------|-----------3--|--0------|

[Brideg Rifff]
e|-----------|-----------------------|
B|--9--------|--7---------------9----|
G|--9--------|--8---------------9----|
D|--9--------|--9---------------9----|
A|--7--------|--7---------------7----|
E|-----------|--0---------------0----|
              
e|-----------|-------------------|-------------|---------|
B|--9--------|--12----10----9----|--------7----|--7------|
G|--9--------|---9-----9----9----|--4-----8----|--8------|
D|--9--------|---9-----9----9----|--4-----9----|--9------|
A|-----------|-------------------|--2----------|---------|
E|-----------|-------------------|-------------|---------|

e|---------------|-------|---------------------|
B|----------9----|--9----|--12----10------9----|
G|----------9----|--9----|---9-----9------9----|
D|--2-------9----|--9----|---9-----9------9----|
A|--2------------|-------|---------------------|
E|--2------------|-------|---------------------|

e|-------------|----------------|-------------------------------|
B|--9-----7----|--7--------5----|----------------------------4--|
G|--7-----7----|--6--------6----|-------------------------------|
D|--7-----7----|--7--------7----|-------------------------------|
A|--0----------|--0-------------|--2--------------2-------------|
E|--0----------|----------------|-----------5--4-----5--4--2--0-|


************************************

| h    Hammer-on
| p    Pull-off
| br   Bend release
| ~    Vibrato
| /    Slide up
| \    Slide down
| (n)  Ghost note

************************************
Suggest correction
Give kudos to tab author, rate the tab!
1 2 3 4 5
comments
print report bad tab
guest
Wanna post a correction for this tab? Suggest correction