Oops, an error
Loading. Please wait.

Rapid Fire Bass Tab

version 1
version 1

Whole song

Interactive

2,647 views 1 this week
1 commentread comment
1 2 3 4 5
x 5
add to favorites
launch autoscroll
font size
0
reset
guitar tuner
Autoscroll
slow
fast
+/-
esc
set tempo
stop
Help us to improve Ultimate-Guitar.com Take our survey!
×
Difficulty
intermediate
Band:  Judas Priest Copyright (c) CBS Records 1980
Album: British Steel
Song:  Rapid Fire

Tuning standar E
Ian hill 

G||-------------|
D||-------------| (X4)
A||-------------|
E||-------------|

Verse 
Play this part 2 times and after play the second part but repeat all 4 times
in the two verses before to brideg

First part
|----------------------------------|
|----------------------------------|
|--3-3-3-3-3-3-3-3-3-3-3-3-3-3-3-3-| (x2)
|----------------------------------|

|------------------|-------------|------------------|-------------------|
|------------------|-------------|------------------|-------------------|
|------------------|-------------|------------------|-------------------|
|--5----3--5----8--|--5----3--5--|--5----3--5----8--|--5----3--5-----3--|

Second part  
Repeat this entire riff 2 times after the first part  
|--------------------------------|
|--------------------------------|
|--------------------------------| (x2)
|--3-3-3-3-3-3-3-3-3-3-3-3-3-3---|

|------------------|-------------|------------------|-------------------|
|------------------|-------------|------------------|-------------------|
|------------------|-------------|------------------|-------------------|
|--5----3--5----8--|--5----3--5--|--5----3--5----8--|--5----3--5-----3--|

Brideg
|------------------------|---------------|
|--------------5---4--5--|---------------| (x3)
|--7----5--7-------------|--7----5--7----|
|------------------------|---------------|

|---------------|-------------------------|--------------------------|
|---------------|-------------------------|--------------------------|
|--7----5--7----|--7----5--7---10---5--7--|---10---5--7---10---5-----|
|---------------|-------------------------|-----------------------7--|

Solo riff 
|------------------------------|
|------------------------------|
|--7-7--7-7--7-7--7-7--7-7-7-7-| (x2)
|------------------------------|

|------------------------------|
|------------------------------|
|--5-5--5-5--5-5--5-5--5-5-5-5-| (x2)
|------------------------------|

Play this part in every verse before the solos of Glenn and kk 
|------------------------------|
|------------------------------|
|--5-5--5-5--5-5--5-5--5-5-5-5-| (x8)
|------------------------------|


Riff Kk solos 1 and 2
|-------------|
|-------------| (x4)
|-5--------5--|
|-------------|

Riff glenn solos 1 and 2
|------------------------------|
|------------------------------|
|--5-5--5-5--5-5--5-5--5-5-5-5-| 
|------------------------------|
 The next part after solos 
|------------------|-------------|------------------|-------------------|
|------------------|-------------|------------------|-------------------|
|------------------|-------------|------------------|-------------------| (x2)
|--5----3--5----8--|--5----3--5--|--5----3--5----8--|--5----3--5-----3--|

Repeat all the verse riff 2 times  with the  first and second part 
And play the next part 
|--------------------|--------------|------------------|
|--------------------|--------------|------------------|
|--------------------|--------------|------------------|
|--5----3--5----8----|--5----3--5---|--5----3--5---8---|

|--------------|-----------------------|-----------------------|-----------------------|
|--------------|-----------------------|-----------------------|-----------------------|
|--------------|-----------------------|-----------------------|-----------------------|
|--5--3--5-----|--5---3--5---8---3--5--|--8---3--5---8---3--5--|--8---3--5---8---5--3--|

.  - palm mute           /  - slide up to
\  - slide down to       ~  - vibrato
h  - hammer on           b  - Bend
p  - pull off            Suffixes for bend
t  - tap                 f  - full bend    h - half bend
ph - pinched harmonic    q  - quarter bend t - tap bend
*  - see comment         ^  - Hold bend    r release bend
x  - Stuccatto           ~  - vibrato bend
,  - slight palm mute    () - ghost note, sustained note
"  - tremolo note        <> - Trill
Suggest correction
comments
print report bad tab
1 comment total.
0 reply
hamncheez 10 Jun 11, 2013 10:56 PM

great tab

guest
You may want to rate the tab now too:
select rating
Wanna post a correction for this tab? Suggest correction