Oops, an error
Loading. Please wait.

Raw Deal Tab

version 1
version 1

Whole song

Interactive

3,007 views 6 this week
1 commentread comment
1 2 3 4 5
excellent!
x 3
add to favorites
launch autoscroll
font size
0
reset
how to read this tab
guitar tuner
Tab Pro tools
  • play this tab
  • loop segment
  • change instrument
  • show fretboard
  • metronome
×
Best way to learn
"Raw Deal"
Autoscroll
slow
fast
+/-
esc
set tempo
stop
#----------------------------------PLEASE NOTE---------------------------------#
#This file is the author's own work and represents their interpretation of the #
#song. You may only use this file for private study, scholarship, or research. #
#------------------------------------------------------------------------------#

Judas Priest
Raw Deal (from "Sin After Sin")
written by Glenn Tipton and Rob Halford

Transcribed by Adrian Szyndela (email: mayi@z.pl)

I've transcribed all the rhythms and a few licks...
As always: first listen to the recording....

Enjoy!

Intro(7x):
E-|----------------------------------------------------|
B-|----------------------------------------------------|
G-|*----------------5---7----------------------5------*|
D-|*--7-7-5---7p5---5---7--------7-7-5---7p5---5---7--*|
A-|-0-------------7------------0-------------7-----7---|
E-|----------------------------------------------------|

Bridge 1 (1x):
E-|----------------------------------|
B-|----------------------------------|
G-|-----------------5----------------|
D-|---7-7-5---7p5---5-------5--------|
A-|-0-------------7-----5-7---7-6-5--|
E-|----------------------------------|

Verse Rhythm(6x):
E-|----------------------------------------------------------------|
B-|----------------------------------------------------------------|
G-|*--------------------------------------------------------------*|
D-|*-----------------------------------------------5--------------*|
A-|---7-7-5-7---------7-7-5-----------7-7-5-7------5---------------|
E-|-0---------------0-------7-6-5---0--------------3---6-5-0-3-5---|

Bridge 2 (2x):
E-|--------------------------------------------------------------------|
B-|-----------------------------------------------------1st-----2nd----|
G-|-----------------------------5----------------------|-------|-------|
D-|---7-7-5---7-------7-7-5---7-------7-7-5---7-5---5--|-------|-7---5-|
A-|-0-------0-------0-------0-------0-------0-----7----|-0---3-|-5---3-|
E-|----------------------------------------------------|-------|-------|

Then:
*********** Verse Rhythm(4x)
*********** Bridge 2 (2x)

ThePartIDontKnowHowToCallIt 1 (3x):
E-|-----------------------------------------------------|
B-|-----------------------------------------------------|
G-|*-5----------5-------5---7---7b--(9)---r---(7)--5h7-*|
D-|*-3-------0--3----0--3---7--------------------------*|
A-|-----------------------------------------------------|
E-|-----------------------------------------------------|

TheRestOfThePartIDontKnowHowToCallIt (1x):
E-|-----------------------------------------------------|
B-|-----------------------------------------------------|
G-|-5-------7b(9)-7p5---5-------------------------------|
D-|-3-----------------7----7-5---5----------------------|
A-|----------------------------7-----7-6-5-7-5---5------|
E-|--------------------------------------------8---8-7--|

Solo Rhythm (2x):

  First Part(6x):
E-|---------------------------------|
B-|---------------------------------|
G-|*-------------------------------*|
D-|*-2-2---2-2---2-2-----------2~--*|
A-|--2-2---2-2---2-2----------------|
E-|--0-0---0-0---0-0---0-2h3-0------|

   Second Part(1x):
E-|-----------------------------------------------------------------|
B-|-----------------------------------------------------------------|
G-|-----------------------------------------------------------------|
D-|-5-5---5-5---5-5-----5---5---5---7-7---7-7---7-7-----7---7---7---|
A-|-5-5---5-5---5-5-----5---5---5---7-7---7-7---7-7-----7---7---7---|
E-|-3-3---3-3---3-3-----3---3---3---5-5---5-5---5-5-----5---5---5---|

Then:
*********** ThePartIDontKnowHowToCallIt(1x)

Then: (you MUST listen that to catch the rhythm!)
E-|-----------------------------------------------------------------|
B-|-----------------------------------------------------------------|
G-|-5------5-7-7-5-7~----5---5-------------------5~-----------------|
D-|-3----------------------7------7~----5---5----5~--------5--------|
A-|---------------------------------------7------------5-7---7-6-5--|
E-|-----------------------------------------------------------------|

And then again:
*********** Verse Rhythm (4x)
*********** Bridge 2 (2x)

And the last riff(8x):
E-|--------------------------------------------------------------------|
B-|--------------------------------------------------------------------|
G-|*--5-----7-----5-----7---5----------5-----7-----5-----7---5---------|
D-|*--5-----7-----5-----7---5----------5-----7-----5-----7---5---------|
A-|-0-----0-----0-----0-------5-6-7--0-----0-----0-----0-------5-6-7---|
E-|--------------------------------------------------------------------|

E-|--------------------------------------------------------------------|
B-|--------------------------------------------------------------------|
G-|---5-----7-----5-----7---5-----------------------------------------*|
D-|---5-----7-----5-----7---5-------7/9-9-9-9\7-7-7-7\5-5-5-5---------*|
A-|-0-----0-----0-----0-------5-8-7---------------------------5-6-7----|
E-|--------------------------------------------------------------------|

Outro(1x):
E-|--------------------------------------------------------------------|
B-|--------------------------------------------------------------------|
G-|---5-----7-----5-----7---5----------5-----7-----5-----7---5---------|
D-|---5-----7-----5-----7---5----------5-----7-----5-----7---5---------|
A-|-0-----0-----0-----0-------5-6-7--0-----0-----0-----0-------5-6-7---|
E-|--------------------------------------------------------------------|

E-|----------------------------------|
B-|----------------------------------|
G-|---5-----7-----5-----7---5--------|
D-|---5-----7-----5-----7---5--------|
A-|-0-----0-----0-----0-------5-8-7--|
E-|----------------------------------|

E-|-------------------------------------------------------|
B-|-------------------------------------------------------|
G-|-7/-9-9-9-9-7-7-7-7-5-5-5-5-4-4-4--------------2-2-----|
D-|-7/-9-9-9-9-7-7-7-7-5-5-5-5-4-4-4--------------2-2-----|
A-|-5/-7-7-7-7-5-5-5-5-3-3-3-3-2-2-2--------------0-0-----|
E-|-------------------------------------------------------|

I hope you'll enjoy my work..... (BTW, this is my first BIG tab)

Comments, suggestions, corrections, Christmas wishes...
feel free to bomb me with thousands of posts :))....
                                 Adrian (mayi@z.pl)

comments
We did not receive enough feedback on this tab! Please rate:
print report bad tab
1 2 3 4 5
1 comment total.
0 reply
The_Priest wrote on July 16 2008, 09:55 pm

Your layout was slightly confusing, but the tab is spot on, nice going, mate.

I want to post or [tab]
guest
You may want to rate the tab now too:
select rating
Please do not post tabs as comments. Select "correction" instead!