Oops, an error
Loading. Please wait.

Red White And Blue Tab

version 1
version 1

Whole song

Interactive

2,834 views 12 this week
no commentswrite comment
1 2 3 4 5
excellent!
x 3
add to favorites
launch autoscroll
font size
0
reset
how to read this tab
guitar tuner
Autoscroll
slow
fast
+/-
esc
set tempo
stop
Help us to improve Ultimate-Guitar.com Take our survey!
×
Author
Difficulty
novice
tuning:standard
tabbed by:shredder
artist:Judas priest
song: Red white and blue
album: British steel (remastered)
year: 2001 (1980)

this is the special bonus studio track found on the remastered "British steel" album.

Intro (guitar one)
E|--------------------------------------|
B|--------------------------------------|
G|---------6~7------------6-7~--4---7h9-|
D|----7~~5~----7----4~~~4---------7-----|
A|-5~~-----------5~~----------7---------|
E|--------------------------------------|
play twice

Intro (guitar two) (played after guitar one plays intro once)
E|----------9~10-------------9-10~--7---10h12-|
B|----10~~8~-----10----7~~~7------------------|
G|-7~~--------------7~~-----------9---9-------|
D|--------------------------------------------|
A|--------------------------------------------|
E|--------------------------------------------|

verse (rhythm guitar)
E|----------------------------------------------|
B|----------------------------------------------|
G|-7==2==7====7==---2====7==---7==---7==2==7====|
D|-7==2==7====7==5==2====7==5==7==5==7==2==7====|
A|-5==0==5====5==5==0====5==5==5==5==5==0==5====|
E|---------------3==--------3==---3==-----------|
play twice for full verse

verse (lead guitar) (played during second half of verse)
E|------------------------------------------------------------|
B|-----7-10~~8~~10~~---------7-8~~~~----7----------8----------|
G|---7--------------7------7----------7---7------7---6~~7~~7~~|
D|-7------------------7~~7----------7-------7~~7--------------|
A|------------------------------------------------------------|
E|------------------------------------------------------------|

Chorus (rhythm guitar)
E|-----------------------------------------------|
B|-----------------------------------------------|
G|-7====2====-----7==2====7====2====-----2==7====|
D|-7====2====5====7==2====7====2====5====2==7====|
A|-5====0====5====5==0====5====0====5====0==5====|
E|-----------3====------------------3====--------|

Chorus (lead guitar)
E|------------------------------------------------------------------------|
B|-----8-----------------------------------8----------------12-10-10------|
G|-11~~--11-9~~~9-11-12~~12-11-9-7-9~~~11~~--11-9~~~9-11-12----------6-7~~|
D|------------------------------------------------------------------------|
A|------------------------------------------------------------------------|
E|------------------------------------------------------------------------|

Bridge (rhythm guitar)
E|-----------------------------------------------------|
B|-----------------------------------------------------|
G|-2==5==2==-----7====-----7====7==---7==---7==2==7====|
D|-2==5==2==5====7====5====7====7==5==7==5==7==2==7====|
A|-0==3==0==5====5====5====5====5==5==5==5==5==0==5====|
E|----------3====-----3====--------3==---3==-----------|

Bridge (lead guitar)
E|-22----22----22----22----22----22----22----22----|
B|----22----22----22----22----22----22----22----22-|
G|-------------------------------------------------|
D|-------------------------------------------------|
A|-------------------------------------------------|
E|-------------------------------------------------|

E|---------------------------|
B|-----7----------8----------|
G|---7---7------7---6~~7~~7~~|
D|-7-------7~~7--------------|
A|---------------------------|
E|---------------------------|

thats it now here is the structure

Intro
Verse
chorus
verse
chorus
bridge
chorus
chorus

basic song structure

This is quite a song.  For a patriotic song it is very good and very symphonic when both 
are played together.
~shredder
Suggest correction new What's this?
You can suggest a correction to this tab. Community and Mods will review your correction and vote to approve or reject it.
comments
We did not receive enough feedback on this tab! Please rate:
print report bad tab
1 2 3 4 5
guest
You may want to rate the tab now too:
select rating
Please do not post tabs as comments. Select "correction" instead!