Oops, an error
Loading. Please wait.

Revolution Bass Tab

version 1
version 1

Whole song

Interactive

1,726 views 3 this week
2 commentsread comments
1 2 3 4 5
excellent!
x 3
add to favorites
launch autoscroll
font size
0
reset
guitar tuner
Tab Pro tools
  • play this tab
  • loop segment
  • change instrument
  • show fretboard
  • metronome
×
Best way to learn
"Revolution"
Autoscroll
slow
fast
+/-
esc
set tempo
stop
Difficulty
intermediate
                            Judas Priest
                           Song :Revolution
                         Angel Of Retribution
                               ian hill


Intro bass 
Main riff
G||------------------------|-----------------------------|-----------------------------|
D||--------------5---------|-----------------------------|-----------5-----------------|
A||--5--7--7--7-----7--7---|--------------------------5--|--7--7--7-----7--7-----------|
E||------------------------|-----5----5--6----6--7-------|-----------------------------|

|-----------------------------------|----------------------|---------------------------|
|--7s--8--8--7s--5--7p-5-7--5-------|-------------5--------|---------------------------|
|------------------------------7----|-------7--7-----7--7--|------------------------5--|
|-----------------------------------|--0-------------------|-----5----5--6----6--7-----|

|-----------------------------|-----------------------------------|
|-----------5-----------------|--7s--8--8--7s--5--7p-5-7--5-------|
|--7--7--7-----7--7-----------|------------------------------7----|
|-----------------------------|-----------------------------------|

Intro guitar 
Riff 2

|-------------------------|--------------------------|-------------------------|
|-------------------------|--------------------------|-------------------------|
|--5--7--7----10--7--7----|--5--7--7--7--------------|--5--7--7----10--7--7----|
|-------------------------|--------------0--0--0--0--|-------------------------|

|--------------------------|
|--------------------------|
|--------------------------| repeat (x4)
|--5--5--5--6--6--6--7--7--|

Verse 1 and 2

|-------------------|
|-------------------|
|-------------------| X8
|-------------------|

Chorus riff 3
|--------------------------|--------------------------|
|--------------------------|--------------------------|
|--5--7--7--7--7--7--7--7--|--5--7--7--7--------------|
|--------------------------|--------------0--0--0--0--|

|--------------------------|--------------------------|
|--------------------------|--------------------------|
|--5--7--7--7--7--7--7--7--|--------------------------| (2x)
|--------------------------|--5--5--5--6--6--6--7--7--|

Interlude

  
|------------------------|-------------------------|--------------------------|
|------------------------|-------------------------|--------------------------|
|--0--2--2--2--2------0--|--0--2--2--2--2--0-------|-----2--0--0--2--0-----0--|
|------------------------|-------------------------|--------------------------|

|---------------------------|
|---------------------------|
|--0s--3--3--3--3--2--0--3--| (x2)
|---------------------------|



Verse 
Riff 4
|-------------------------|------------------------|-------------------------|
|-------------------------|------------------------|-------------------------|
|-------------------------|------------------------|-------------------------|
|--0--0--0--0--0--0--0----|--0----0----0--0--0--0--|--0--0--0--0--0--0--0----|


|--------------------------|
|--------------------------|
|--------------------------|repeat (X2) 
|--5--5--5--6--6--6--7--7--|
In the second part repeat 3 times the end of riff 4

In the solo 
Repeat (4x)
|----------------------|----------------|------------------------|---------------------|
|----------------------|----------------|------------------------|---------------------|
|--5--7--7----10--7--7-|--5--7--7--7----|--5--7--7----10--7--7---|---------------------|
|----------------------|----------------|------------------------|--3--5----3--5---3--5|
  
The end of solo

|------------------------------------|-------------------|--------------------------|
|--12--14--14--14S--17S--14--14--14--|-------------------|--0--2--2--2--5--2--------|
|------------------------------------|-------------------|--------------------6--5--|
|------------------------------------|-------------------|--------------------------|
               
|--------------------------|
|--------------------------|
|-----5--1--2--1--0--------|
|--------------------3--2--|

Repeat
Riff 3 
Chorus and outro
Fade out 

judas priestt forever

tuning E
comments
We did not receive enough feedback on this tab! Please rate:
print report bad tab
1 2 3 4 5
2 comments total.
0 reply
Black Ox wrote on December 11 2010, 02:00 pm

Pretty good but the intro is a tad less complex

D||-\8-8-7-5--7p5----|
A||---------------7--|

There's also bass throughout that interlude section at the end of the solo,but I haven't figured it out yet.

0 reply
Black Ox wrote on December 11 2010, 02:23 pm

G||----------------------------------------------------------|
D||-12-14-14-14-17-14-14-14-----12---------------------------|
A||-------------------------\14----14-13-12-10-9-7-----------|
E||----------------------------------------------------------|

This should fill in the blank.

I want to post or [tab]
guest
You may want to rate the tab now too:
select rating
Please do not post tabs as comments. Select "correction" instead!